  0
SECTION
  2
HEADER
  9
$ACADVER
  1
AC1015
  9
$ACADMAINTVER
 70
     6
  9
$DWGCODEPAGE
  3
ANSI_1252
  9
$INSBASE
 10
0.0
 20
0.0
 30
0.0
  9
$EXTMIN
 10
0.0
 20
0.0
 30
0.0
  9
$EXTMAX
 10
431.8
 20
279.4
 30
0.0
  9
$LIMMIN
 10
0.0
 20
0.0
  9
$LIMMAX
 10
431.8
 20
279.4
  9
$ORTHOMODE
 70
     0
  9
$REGENMODE
 70
     1
  9
$FILLMODE
 70
     1
  9
$QTEXTMODE
 70
     0
  9
$MIRRTEXT
 70
     1
  9
$LTSCALE
 40
1.0
  9
$ATTMODE
 70
     1
  9
$TEXTSIZE
 40
4.9388888889
  9
$TRACEWID
 40
1.0
  9
$TEXTSTYLE
  7
Standard
  9
$CLAYER
  8
0
  9
$CELTYPE
  6
ByLayer
  9
$CECOLOR
 62
   256
  9
$CELTSCALE
 40
1.0
  9
$DISPSILH
 70
     0
  9
$DIMSCALE
 40
1.0
  9
$DIMASZ
 40
5.1366373698
  9
$DIMEXO
 40
2.0
  9
$DIMDLI
 40
3.75
  9
$DIMRND
 40
0.0
  9
$DIMDLE
 40
0.0
  9
$DIMEXE
 40
2.0
  9
$DIMTP
 40
0.0
  9
$DIMTM
 40
0.0
  9
$DIMTXT
 40
7.0555555556
  9
$DIMCEN
 40
2.5
  9
$DIMTSZ
 40
0.0
  9
$DIMTOL
 70
     0
  9
$DIMLIM
 70
     0
  9
$DIMTIH
 70
     1
  9
$DIMTOH
 70
     1
  9
$DIMSE1
 70
     0
  9
$DIMSE2
 70
     0
  9
$DIMTAD
 70
     1
  9
$DIMZIN
 70
     0
  9
$DIMBLK
  1

  9
$DIMASO
 70
     1
  9
$DIMSHO
 70
     1
  9
$DIMPOST
  1

  9
$DIMAPOST
  1

  9
$DIMALT
 70
     0
  9
$DIMALTD
 70
     3
  9
$DIMALTF
 40
0.0393700787
  9
$DIMLFAC
 40
1.0
  9
$DIMTOFL
 70
     1
  9
$DIMTVP
 40
0.0
  9
$DIMTIX
 70
     0
  9
$DIMSOXD
 70
     0
  9
$DIMSAH
 70
     0
  9
$DIMBLK1
  1

  9
$DIMBLK2
  1

  9
$DIMSTYLE
  2
ISO-25
  9
$DIMCLRD
 70
     0
  9
$DIMCLRE
 70
     0
  9
$DIMCLRT
 70
     0
  9
$DIMTFAC
 40
1.0
  9
$DIMGAP
 40
2.0
  9
$DIMJUST
 70
     0
  9
$DIMSD1
 70
     0
  9
$DIMSD2
 70
     0
  9
$DIMTOLJ
 70
     0
  9
$DIMTZIN
 70
     0
  9
$DIMALTZ
 70
     0
  9
$DIMALTTZ
 70
     0
  9
$DIMUPT
 70
     0
  9
$DIMDEC
 70
     2
  9
$DIMTDEC
 70
     2
  9
$DIMALTU
 70
     2
  9
$DIMALTTD
 70
     3
  9
$DIMTXSTY
  7
Standard
  9
$DIMAUNIT
 70
     0
  9
$DIMADEC
 70
     2
  9
$DIMALTRND
 40
0.0
  9
$DIMAZIN
 70
     0
  9
$DIMDSEP
 70
    44
  9
$DIMATFIT
 70
     3
  9
$DIMFRAC
 70
     0
  9
$DIMLDRBLK
  1

  9
$DIMLUNIT
 70
     2
  9
$DIMLWD
 70
    -2
  9
$DIMLWE
 70
    -2
  9
$DIMTMOVE
 70
     0
  9
$LUNITS
 70
     2
  9
$LUPREC
 70
     2
  9
$SKETCHINC
 40
1.0
  9
$FILLETRAD
 40
10.0
  9
$AUNITS
 70
     0
  9
$AUPREC
 70
     2
  9
$MENU
  1
.
  9
$ELEVATION
 40
0.0
  9
$PELEVATION
 40
0.0
  9
$THICKNESS
 40
0.0
  9
$LIMCHECK
 70
     0
  9
$CHAMFERA
 40
0.0
  9
$CHAMFERB
 40
0.0
  9
$CHAMFERC
 40
0.0
  9
$CHAMFERD
 40
0.0
  9
$SKPOLY
 70
     0
  9
$TDCREATE
 40
2457679.584154143
  9
$TDUCREATE
 40
2457679.50082081
  9
$TDUPDATE
 40
2457679.584154665
  9
$TDUUPDATE
 40
2457679.500821331
  9
$TDINDWG
 40
0.0000000116
  9
$TDUSRTIMER
 40
0.0000000116
  9
$USRTIMER
 70
     1
  9
$ANGBASE
 50
0.0
  9
$ANGDIR
 70
     0
  9
$PDMODE
 70
     0
  9
$PDSIZE
 40
-1.0
  9
$PLINEWID
 40
0.0
  9
$SPLFRAME
 70
     0
  9
$SPLINETYPE
 70
     6
  9
$SPLINESEGS
 70
     8
  9
$HANDSEED
  5
3F0
  9
$SURFTAB1
 70
     6
  9
$SURFTAB2
 70
     6
  9
$SURFTYPE
 70
     6
  9
$SURFU
 70
     6
  9
$SURFV
 70
     6
  9
$UCSBASE
  2

  9
$UCSNAME
  2

  9
$UCSORG
 10
0.0
 20
0.0
 30
0.0
  9
$UCSXDIR
 10
1.0
 20
0.0
 30
0.0
  9
$UCSYDIR
 10
0.0
 20
1.0
 30
0.0
  9
$UCSORTHOREF
  2

  9
$UCSORTHOVIEW
 70
     0
  9
$UCSORGTOP
 10
0.0
 20
0.0
 30
0.0
  9
$UCSORGBOTTOM
 10
0.0
 20
0.0
 30
0.0
  9
$UCSORGLEFT
 10
0.0
 20
0.0
 30
0.0
  9
$UCSORGRIGHT
 10
0.0
 20
0.0
 30
0.0
  9
$UCSORGFRONT
 10
0.0
 20
0.0
 30
0.0
  9
$UCSORGBACK
 10
0.0
 20
0.0
 30
0.0
  9
$PUCSBASE
  2

  9
$PUCSNAME
  2

  9
$PUCSORG
 10
0.0
 20
0.0
 30
0.0
  9
$PUCSXDIR
 10
1.0
 20
0.0
 30
0.0
  9
$PUCSYDIR
 10
0.0
 20
1.0
 30
0.0
  9
$PUCSORTHOREF
  2

  9
$PUCSORTHOVIEW
 70
     0
  9
$PUCSORGTOP
 10
0.0
 20
0.0
 30
0.0
  9
$PUCSORGBOTTOM
 10
0.0
 20
0.0
 30
0.0
  9
$PUCSORGLEFT
 10
0.0
 20
0.0
 30
0.0
  9
$PUCSORGRIGHT
 10
0.0
 20
0.0
 30
0.0
  9
$PUCSORGFRONT
 10
0.0
 20
0.0
 30
0.0
  9
$PUCSORGBACK
 10
0.0
 20
0.0
 30
0.0
  9
$USERI1
 70
     0
  9
$USERI2
 70
     0
  9
$USERI3
 70
     0
  9
$USERI4
 70
     0
  9
$USERI5
 70
     0
  9
$USERR1
 40
0.0
  9
$USERR2
 40
0.0
  9
$USERR3
 40
0.0
  9
$USERR4
 40
0.0
  9
$USERR5
 40
0.0
  9
$WORLDVIEW
 70
     1
  9
$SHADEDGE
 70
     3
  9
$SHADEDIF
 70
    70
  9
$TILEMODE
 70
     1
  9
$MAXACTVP
 70
    64
  9
$PINSBASE
 10
0.0
 20
0.0
 30
0.0
  9
$PLIMCHECK
 70
     0
  9
$PEXTMIN
 10
1.0000000000E+20
 20
1.0000000000E+20
 30
1.0000000000E+20
  9
$PEXTMAX
 10
-1.0000000000E+20
 20
-1.0000000000E+20
 30
-1.0000000000E+20
  9
$PLIMMIN
 10
0.0
 20
0.0
  9
$PLIMMAX
 10
420.0
 20
297.0
  9
$UNITMODE
 70
     0
  9
$VISRETAIN
 70
     1
  9
$PLINEGEN
 70
     0
  9
$PSLTSCALE
 70
     1
  9
$TREEDEPTH
 70
  3020
  9
$CMLSTYLE
  2
Standard
  9
$CMLJUST
 70
     0
  9
$CMLSCALE
 40
20.0
  9
$PROXYGRAPHICS
 70
     1
  9
$MEASUREMENT
 70
     1
  9
$CELWEIGHT
370
    -1
  9
$ENDCAPS
280
     0
  9
$JOINSTYLE
280
     0
  9
$LWDISPLAY
290
     1
  9
$INSUNITS
 70
     4
  9
$HYPERLINKBASE
  1

  9
$STYLESHEET
  1

  9
$XEDIT
290
     1
  9
$CEPSNTYPE
380
     0
  9
$PSTYLEMODE
290
     1
  9
$FINGERPRINTGUID
  2
{3FA60158-5596-4A26-A15A-6C1415C8611B}
  9
$VERSIONGUID
  2
{FAEB1C32-E019-11D5-929B-00C0DF256EC4}
  9
$EXTNAMES
290
     1
  9
$PSVPSCALE
 40
0.0
  9
$OLESTARTUP
290
     0
  0
ENDSEC
  0
SECTION
  2
CLASSES
  0
CLASS
  1
ACDBDICTIONARYWDFLT
  2
AcDbDictionaryWithDefault
  3
ObjectDBX Classes
 90
        0
280
     0
281
     0
  0
CLASS
  1
VISUALSTYLE
  2
AcDbVisualStyle
  3
ObjectDBX Classes
 90
     4095
280
     0
281
     0
  0
CLASS
  1
MATERIAL
  2
AcDbMaterial
  3
ObjectDBX Classes
 90
     1153
280
     0
281
     0
  0
CLASS
  1
SCALE
  2
AcDbScale
  3
ObjectDBX Classes
 90
     1153
280
     0
281
     0
  0
CLASS
  1
TABLESTYLE
  2
AcDbTableStyle
  3
ObjectDBX Classes
 90
     4095
280
     0
281
     0
  0
CLASS
  1
MLEADERSTYLE
  2
AcDbMLeaderStyle
  3
ACDB_MLEADERSTYLE_CLASS
 90
     4095
280
     0
281
     0
  0
CLASS
  1
SUN
  2
AcDbSun
  3
SCENEOE
 90
     1153
280
     0
281
     0
  0
CLASS
  1
ACDBPLACEHOLDER
  2
AcDbPlaceHolder
  3
ObjectDBX Classes
 90
        0
280
     0
281
     0
  0
CLASS
  1
LAYOUT
  2
AcDbLayout
  3
ObjectDBX Classes
 90
        0
280
     0
281
     0
  0
ENDSEC
  0
SECTION
  2
TABLES
  0
TABLE
  2
VPORT
  5
8
330
0
100
AcDbSymbolTable
 70
     1
  0
VPORT
  5
29
330
8
100
AcDbSymbolTableRecord
100
AcDbViewportTableRecord
  2
*Active
 70
     0
 10
0.0
 20
0.0
 11
1.0
 21
1.0
 12
215.9
 22
139.7
 13
0.0
 23
0.0
 14
10.0
 24
10.0
 15
10.0
 25
10.0
 16
0.0
 26
0.0
 36
1.0
 17
0.0
 27
0.0
 37
0.0
 40
279.4
 41
1.5454545455
 42
50.0
 43
0.0
 44
0.0
 50
0.0
 51
0.0
 71
     0
 72
  2000
 73
     1
 74
     3
 75
     0
 76
     0
 77
     0
 78
     0
281
     0
 65
     1
110
0.0
120
0.0
130
0.0
111
1.0
121
0.0
131
0.0
112
0.0
122
1.0
132
0.0
 79
     0
146
0.0
  0
ENDTAB
  0
TABLE
  2
LTYPE
  5
5
330
0
100
AcDbSymbolTable
 70
     6
  0
LTYPE
  5
14
330
5
100
AcDbSymbolTableRecord
100
AcDbLinetypeTableRecord
  2
ByBlock
 70
     0
  3

 72
    65
 73
     0
 40
0.0
  0
LTYPE
  5
15
330
5
100
AcDbSymbolTableRecord
100
AcDbLinetypeTableRecord
  2
ByLayer
 70
     0
  3

 72
    65
 73
     0
 40
0.0
  0
LTYPE
  5
16
330
5
100
AcDbSymbolTableRecord
100
AcDbLinetypeTableRecord
  2
Continuous
 70
     0
  3
Solid line
 72
    65
 73
     0
 40
0.0
  0
LTYPE
  5
6E
330
5
100
AcDbSymbolTableRecord
100
AcDbLinetypeTableRecord
  2
HIDDEN
 70
     0
  3
Hidden __ __ __ __ __ __ __ __ __ __ __ __ __ __
 72
    65
 73
     2
 40
1.905
 49
1.27
 74
     0
 49
-0.635
 74
     0
  0
LTYPE
  5
6F
330
5
100
AcDbSymbolTableRecord
100
AcDbLinetypeTableRecord
  2
PHANTOM
 70
     0
  3
Phantom ______  __  __  ______  __  __  ______
 72
    65
 73
     6
 40
12.7
 49
6.35
 74
     0
 49
-1.27
 74
     0
 49
1.27
 74
     0
 49
-1.27
 74
     0
 49
1.27
 74
     0
 49
-1.27
 74
     0
  0
LTYPE
  5
70
330
5
100
AcDbSymbolTableRecord
100
AcDbLinetypeTableRecord
  2
CENTER
 70
     0
  3
Center ____ _ ____ _ ____ _ ____ _ ____ _ ____
 72
    65
 73
     4
 40
10.16
 49
6.35
 74
     0
 49
-1.27
 74
     0
 49
1.27
 74
     0
 49
-1.27
 74
     0
  0
LTYPE
  5
71
330
5
100
AcDbSymbolTableRecord
100
AcDbLinetypeTableRecord
  2
CENTERX2
 70
     0
  3
Center (2x) ________  __  ________  __  _____
 72
    65
 73
     4
 40
20.32
 49
12.7
 74
     0
 49
-2.54
 74
     0
 49
2.54
 74
     0
 49
-2.54
 74
     0
  0
LTYPE
  5
72
330
5
100
AcDbSymbolTableRecord
100
AcDbLinetypeTableRecord
  2
DOT2
 70
     0
  3
Dot (.5x) ........................................
 72
    65
 73
     2
 40
0.635
 49
0.0
 74
     0
 49
-0.635
 74
     0
  0
ENDTAB
  0
TABLE
  2
LAYER
  5
2
330
0
100
AcDbSymbolTable
 70
     3
  0
LAYER
  5
10
330
2
100
AcDbSymbolTableRecord
100
AcDbLayerTableRecord
  2
0
 70
     0
 62
     7
  6
Continuous
370
    -3
390
F
  0
LAYER
  5
73
330
2
100
AcDbSymbolTableRecord
100
AcDbLayerTableRecord
  2
SLD-0
 70
     0
 62
   179
  6
Continuous
370
    -3
390
F
  0
LAYER
  5
74
330
2
100
AcDbSymbolTableRecord
100
AcDbLayerTableRecord
  2
EBENE_1
 70
     0
 62
   179
  6
Continuous
370
    -3
390
F
  0
ENDTAB
  0
TABLE
  2
STYLE
  5
3
330
0
100
AcDbSymbolTable
 70
     3
  0
STYLE
  5
11
330
3
100
AcDbSymbolTableRecord
100
AcDbTextStyleTableRecord
  2
Standard
 70
     0
 40
0.0
 41
1.0
 50
0.0
 71
     0
 42
4.9388888889
  3
txt
  4

  0
STYLE
  5
96
330
3
100
AcDbSymbolTableRecord
100
AcDbTextStyleTableRecord
  2
SLDTEXTSTYLE0
 70
     0
 40
0.0
 41
0.605
 50
0.0
 71
     0
 42
4.9388888889
  3
TXT
  4

  0
STYLE
  5
16E
330
3
100
AcDbSymbolTableRecord
100
AcDbTextStyleTableRecord
  2
SLDTEXTSTYLE1
 70
     0
 40
0.0
 41
0.75
 50
0.0
 71
     0
 42
4.9388888889
  3
TXT
  4

  0
ENDTAB
  0
TABLE
  2
VIEW
  5
6
330
0
100
AcDbSymbolTable
 70
     0
  0
ENDTAB
  0
TABLE
  2
UCS
  5
7
330
0
100
AcDbSymbolTable
 70
     0
  0
ENDTAB
  0
TABLE
  2
APPID
  5
9
330
0
100
AcDbSymbolTable
 70
     1
  0
APPID
  5
12
330
9
100
AcDbSymbolTableRecord
100
AcDbRegAppTableRecord
  2
ACAD
 70
     0
  0
ENDTAB
  0
TABLE
  2
DIMSTYLE
  5
A
330
0
100
AcDbSymbolTable
 70
     1
100
AcDbDimStyleTable
  0
DIMSTYLE
105
27
330
A
100
AcDbSymbolTableRecord
100
AcDbDimStyleTableRecord
  2
ISO-25
 70
     0
 41
2.5
 42
0.625
 43
3.75
 44
1.25
 73
     0
 74
     0
 77
     1
 78
     8
140
2.5
141
2.5
143
0.0393700787
147
0.625
171
     3
172
     1
178
     0
271
     2
272
     2
274
     3
278
    44
283
     0
284
     8
340
11
  0
ENDTAB
  0
TABLE
  2
BLOCK_RECORD
  5
1
330
0
100
AcDbSymbolTable
 70
    25
  0
BLOCK_RECORD
  5
1F
330
1
100
AcDbSymbolTableRecord
100
AcDbBlockTableRecord
  2
*Model_Space
340
22
  0
BLOCK_RECORD
  5
1B
330
1
100
AcDbSymbolTableRecord
100
AcDbBlockTableRecord
  2
*Paper_Space
340
1E
  0
BLOCK_RECORD
  5
23
330
1
100
AcDbSymbolTableRecord
100
AcDbBlockTableRecord
  2
*Paper_Space0
340
26
  0
BLOCK_RECORD
  5
75
330
1
100
AcDbSymbolTableRecord
100
AcDbBlockTableRecord
  2
Block1
340
0
102
{BLKREFS
331
16D
102
}
  0
BLOCK_RECORD
  5
8C
330
1
100
AcDbSymbolTableRecord
100
AcDbBlockTableRecord
  2
SW_BLOCK_DIMENSION_0
340
0
102
{BLKREFS
331
98
102
}
  0
BLOCK_RECORD
  5
8F
330
1
100
AcDbSymbolTableRecord
100
AcDbBlockTableRecord
  2
_ORIGIN
340
0
102
{BLKREFS
331
94
331
104
102
}
  0
BLOCK_RECORD
  5
99
330
1
100
AcDbSymbolTableRecord
100
AcDbBlockTableRecord
  2
SW_BLOCK_DIMENSION_1
340
0
102
{BLKREFS
331
A0
102
}
  0
BLOCK_RECORD
  5
A1
330
1
100
AcDbSymbolTableRecord
100
AcDbBlockTableRecord
  2
SW_BLOCK_DIMENSION_2
340
0
102
{BLKREFS
331
A8
102
}
  0
BLOCK_RECORD
  5
A9
330
1
100
AcDbSymbolTableRecord
100
AcDbBlockTableRecord
  2
SW_BLOCK_DIMENSION_3
340
0
102
{BLKREFS
331
B0
102
}
  0
BLOCK_RECORD
  5
B1
330
1
100
AcDbSymbolTableRecord
100
AcDbBlockTableRecord
  2
SW_BLOCK_DIMENSION_4
340
0
102
{BLKREFS
331
B8
102
}
  0
BLOCK_RECORD
  5
B9
330
1
100
AcDbSymbolTableRecord
100
AcDbBlockTableRecord
  2
SW_BLOCK_DIMENSION_5
340
0
102
{BLKREFS
331
C0
102
}
  0
BLOCK_RECORD
  5
C1
330
1
100
AcDbSymbolTableRecord
100
AcDbBlockTableRecord
  2
SW_BLOCK_DIMENSION_6
340
0
102
{BLKREFS
331
C8
102
}
  0
BLOCK_RECORD
  5
C9
330
1
100
AcDbSymbolTableRecord
100
AcDbBlockTableRecord
  2
SW_BLOCK_DIMENSION_7
340
0
102
{BLKREFS
331
D0
102
}
  0
BLOCK_RECORD
  5
D1
330
1
100
AcDbSymbolTableRecord
100
AcDbBlockTableRecord
  2
SW_BLOCK_DIMENSION_8
340
0
102
{BLKREFS
331
D8
102
}
  0
BLOCK_RECORD
  5
D9
330
1
100
AcDbSymbolTableRecord
100
AcDbBlockTableRecord
  2
SW_BLOCK_DIMENSION_9
340
0
102
{BLKREFS
331
E0
102
}
  0
BLOCK_RECORD
  5
E1
330
1
100
AcDbSymbolTableRecord
100
AcDbBlockTableRecord
  2
SW_BLOCK_DIMENSION_10
340
0
102
{BLKREFS
331
E8
102
}
  0
BLOCK_RECORD
  5
E9
330
1
100
AcDbSymbolTableRecord
100
AcDbBlockTableRecord
  2
SW_BLOCK_DIMENSION_11
340
0
102
{BLKREFS
331
F0
102
}
  0
BLOCK_RECORD
  5
F1
330
1
100
AcDbSymbolTableRecord
100
AcDbBlockTableRecord
  2
SW_BLOCK_DIMENSION_12
340
0
102
{BLKREFS
331
F8
102
}
  0
BLOCK_RECORD
  5
F9
330
1
100
AcDbSymbolTableRecord
100
AcDbBlockTableRecord
  2
SW_BLOCK_DIMENSION_13
340
0
102
{BLKREFS
331
100
102
}
  0
BLOCK_RECORD
  5
101
330
1
100
AcDbSymbolTableRecord
100
AcDbBlockTableRecord
  2
SW_BLOCK_DIMENSION_14
340
0
102
{BLKREFS
331
110
102
}
  0
BLOCK_RECORD
  5
111
330
1
100
AcDbSymbolTableRecord
100
AcDbBlockTableRecord
  2
SW_BLOCK_DIMENSION_15
340
0
102
{BLKREFS
331
121
102
}
  0
BLOCK_RECORD
  5
122
330
1
100
AcDbSymbolTableRecord
100
AcDbBlockTableRecord
  2
SW_BLOCK_DIMENSION_16
340
0
102
{BLKREFS
331
132
102
}
  0
BLOCK_RECORD
  5
133
330
1
100
AcDbSymbolTableRecord
100
AcDbBlockTableRecord
  2
SW_BLOCK_DIMENSION_17
340
0
102
{BLKREFS
331
143
102
}
  0
BLOCK_RECORD
  5
144
330
1
100
AcDbSymbolTableRecord
100
AcDbBlockTableRecord
  2
SW_BLOCK_DIMENSION_18
340
0
102
{BLKREFS
331
154
102
}
  0
BLOCK_RECORD
  5
155
330
1
100
AcDbSymbolTableRecord
100
AcDbBlockTableRecord
  2
SW_BLOCK_DIMENSION_19
340
0
102
{BLKREFS
331
165
102
}
  0
BLOCK_RECORD
  5
166
330
1
100
AcDbSymbolTableRecord
100
AcDbBlockTableRecord
  2
SW_NOTE_0
340
0
102
{BLKREFS
331
16B
102
}
  0
BLOCK_RECORD
  5
171
330
1
100
AcDbSymbolTableRecord
100
AcDbBlockTableRecord
  2
SW_NOTE_1
340
0
102
{BLKREFS
331
178
102
}
  0
ENDTAB
  0
ENDSEC
  0
SECTION
  2
BLOCKS
  0
BLOCK
  5
20
330
1F
100
AcDbEntity
  8
0
100
AcDbBlockBegin
  2
*Model_Space
 70
     0
 10
0.0
 20
0.0
 30
0.0
  3
*Model_Space
  1

  0
ENDBLK
  5
21
330
1F
100
AcDbEntity
  8
0
100
AcDbBlockEnd
  0
BLOCK
  5
1C
330
1B
100
AcDbEntity
 67
     1
  8
0
100
AcDbBlockBegin
  2
*Paper_Space
 70
     0
 10
0.0
 20
0.0
 30
0.0
  3
*Paper_Space
  1

  0
ENDBLK
  5
1D
330
1B
100
AcDbEntity
 67
     1
  8
0
100
AcDbBlockEnd
  0
BLOCK
  5
24
330
23
100
AcDbEntity
  8
0
100
AcDbBlockBegin
  2
*Paper_Space0
 70
     0
 10
0.0
 20
0.0
 30
0.0
  3
*Paper_Space0
  1

  0
ENDBLK
  5
25
330
23
100
AcDbEntity
  8
0
100
AcDbBlockEnd
  0
BLOCK
  5
76
330
75
100
AcDbEntity
  8
0
100
AcDbBlockBegin
  2
Block1
 70
     0
 10
0.0
 20
0.0
 30
0.0
  3
Block1
  1

  0
LINE
  5
78
330
75
100
AcDbEntity
  8
EBENE_1
100
AcDbLine
 10
363.6834285714
 20
41.3579706949
 30
0.0
 11
388.6834285714
 21
41.3579706949
 31
0.0
  0
LINE
  5
79
330
75
100
AcDbEntity
  8
EBENE_1
100
AcDbLine
 10
374.9034285714
 20
41.3579706949
 30
0.0
 11
374.9034285714
 21
171.3579706949
 31
0.0
  0
LINE
  5
7A
330
75
100
AcDbEntity
  8
EBENE_1
100
AcDbLine
 10
374.9034285714
 20
51.3579706949
 30
0.0
 11
384.9034285714
 21
51.3579706949
 31
0.0
  0
LINE
  5
7B
330
75
100
AcDbEntity
  8
EBENE_1
100
AcDbLine
 10
374.9034285714
 20
61.3579706949
 30
0.0
 11
384.9034285714
 21
61.3579706949
 31
0.0
  0
LINE
  5
7C
330
75
100
AcDbEntity
  8
EBENE_1
100
AcDbLine
 10
374.9034285714
 20
71.3579706949
 30
0.0
 11
384.9034285714
 21
71.3579706949
 31
0.0
  0
LINE
  5
7D
330
75
100
AcDbEntity
  8
EBENE_1
100
AcDbLine
 10
374.9034285714
 20
81.3579706949
 30
0.0
 11
384.9034285714
 21
81.3579706949
 31
0.0
  0
LINE
  5
7E
330
75
100
AcDbEntity
  8
EBENE_1
100
AcDbLine
 10
374.9034285714
 20
91.3579706949
 30
0.0
 11
384.9034285714
 21
91.3579706949
 31
0.0
  0
LINE
  5
7F
330
75
100
AcDbEntity
  8
EBENE_1
100
AcDbLine
 10
374.9034285714
 20
101.3579706949
 30
0.0
 11
384.9034285714
 21
101.3579706949
 31
0.0
  0
LINE
  5
80
330
75
100
AcDbEntity
  8
EBENE_1
100
AcDbLine
 10
374.9034285714
 20
111.3579706949
 30
0.0
 11
384.9034285714
 21
111.3579706949
 31
0.0
  0
LINE
  5
81
330
75
100
AcDbEntity
  8
EBENE_1
100
AcDbLine
 10
374.9034285714
 20
121.3579706949
 30
0.0
 11
384.9034285714
 21
121.3579706949
 31
0.0
  0
LINE
  5
82
330
75
100
AcDbEntity
  8
EBENE_1
100
AcDbLine
 10
374.9034285714
 20
131.3579706949
 30
0.0
 11
384.9034285714
 21
131.3579706949
 31
0.0
  0
LINE
  5
83
330
75
100
AcDbEntity
  8
EBENE_1
100
AcDbLine
 10
374.9034285714
 20
141.3579706949
 30
0.0
 11
384.9034285714
 21
141.3579706949
 31
0.0
  0
LINE
  5
84
330
75
100
AcDbEntity
  8
EBENE_1
100
AcDbLine
 10
374.9034285714
 20
151.3579706949
 30
0.0
 11
384.9034285714
 21
151.3579706949
 31
0.0
  0
LINE
  5
85
330
75
100
AcDbEntity
  8
EBENE_1
100
AcDbLine
 10
374.9034285714
 20
161.3579706949
 30
0.0
 11
384.9034285714
 21
161.3579706949
 31
0.0
  0
LINE
  5
86
330
75
100
AcDbEntity
  8
EBENE_1
100
AcDbLine
 10
374.9034285714
 20
171.3579706949
 30
0.0
 11
384.9034285714
 21
171.3579706949
 31
0.0
  0
LINE
  5
87
330
75
100
AcDbEntity
  8
EBENE_1
100
AcDbLine
 10
374.9034285714
 20
66.7579706949
 30
0.0
 11
362.9034285714
 21
66.7579706949
 31
0.0
  0
LINE
  5
88
330
75
100
AcDbEntity
  8
EBENE_1
100
AcDbLine
 10
374.9034285714
 20
92.1579706949
 30
0.0
 11
362.9034285714
 21
92.1579706949
 31
0.0
  0
LINE
  5
89
330
75
100
AcDbEntity
  8
EBENE_1
100
AcDbLine
 10
374.9034285714
 20
117.5579706949
 30
0.0
 11
362.9034285714
 21
117.5579706949
 31
0.0
  0
LINE
  5
8A
330
75
100
AcDbEntity
  8
EBENE_1
100
AcDbLine
 10
374.9034285714
 20
142.9579706949
 30
0.0
 11
362.9034285714
 21
142.9579706949
 31
0.0
  0
LINE
  5
8B
330
75
100
AcDbEntity
  8
EBENE_1
100
AcDbLine
 10
374.9034285714
 20
168.3579706949
 30
0.0
 11
362.9034285714
 21
168.3579706949
 31
0.0
  0
INSERT
  5
98
330
75
100
AcDbEntity
  8
EBENE_1
100
AcDbBlockReference
  2
SW_BLOCK_DIMENSION_0
 10
397.2096946378
 20
38.9914197296
 30
0.0
  0
INSERT
  5
A0
330
75
100
AcDbEntity
  8
EBENE_1
100
AcDbBlockReference
  2
SW_BLOCK_DIMENSION_1
 10
397.2096946378
 20
48.9914197296
 30
0.0
  0
INSERT
  5
A8
330
75
100
AcDbEntity
  8
EBENE_1
100
AcDbBlockReference
  2
SW_BLOCK_DIMENSION_2
 10
397.2096946378
 20
58.9914197296
 30
0.0
  0
INSERT
  5
B0
330
75
100
AcDbEntity
  8
EBENE_1
100
AcDbBlockReference
  2
SW_BLOCK_DIMENSION_3
 10
397.2096946378
 20
68.9914197296
 30
0.0
  0
INSERT
  5
B8
330
75
100
AcDbEntity
  8
EBENE_1
100
AcDbBlockReference
  2
SW_BLOCK_DIMENSION_4
 10
397.2096946378
 20
78.9914197296
 30
0.0
  0
INSERT
  5
C0
330
75
100
AcDbEntity
  8
EBENE_1
100
AcDbBlockReference
  2
SW_BLOCK_DIMENSION_5
 10
397.2096946378
 20
88.9914197296
 30
0.0
  0
INSERT
  5
C8
330
75
100
AcDbEntity
  8
EBENE_1
100
AcDbBlockReference
  2
SW_BLOCK_DIMENSION_6
 10
397.2096946378
 20
98.9914197296
 30
0.0
  0
INSERT
  5
D0
330
75
100
AcDbEntity
  8
EBENE_1
100
AcDbBlockReference
  2
SW_BLOCK_DIMENSION_7
 10
397.2096946378
 20
108.9914197296
 30
0.0
  0
INSERT
  5
D8
330
75
100
AcDbEntity
  8
EBENE_1
100
AcDbBlockReference
  2
SW_BLOCK_DIMENSION_8
 10
397.2096946378
 20
118.9914197296
 30
0.0
  0
INSERT
  5
E0
330
75
100
AcDbEntity
  8
EBENE_1
100
AcDbBlockReference
  2
SW_BLOCK_DIMENSION_9
 10
397.2096946378
 20
128.9914197296
 30
0.0
  0
INSERT
  5
E8
330
75
100
AcDbEntity
  8
EBENE_1
100
AcDbBlockReference
  2
SW_BLOCK_DIMENSION_10
 10
397.2096946378
 20
138.9914197296
 30
0.0
  0
INSERT
  5
F0
330
75
100
AcDbEntity
  8
EBENE_1
100
AcDbBlockReference
  2
SW_BLOCK_DIMENSION_11
 10
397.2096946378
 20
148.9914197296
 30
0.0
  0
INSERT
  5
F8
330
75
100
AcDbEntity
  8
EBENE_1
100
AcDbBlockReference
  2
SW_BLOCK_DIMENSION_12
 10
397.2096946378
 20
158.9914197296
 30
0.0
  0
INSERT
  5
100
330
75
100
AcDbEntity
  8
EBENE_1
100
AcDbBlockReference
  2
SW_BLOCK_DIMENSION_13
 10
397.2096946378
 20
168.9914197296
 30
0.0
  0
INSERT
  5
110
330
75
100
AcDbEntity
  8
EBENE_1
100
AcDbBlockReference
  2
SW_BLOCK_DIMENSION_14
 10
337.2987953614
 20
36.1691980072
 30
0.0
  0
INSERT
  5
121
330
75
100
AcDbEntity
  8
EBENE_1
100
AcDbBlockReference
  2
SW_BLOCK_DIMENSION_15
 10
337.2987953614
 20
61.5691980072
 30
0.0
  0
INSERT
  5
132
330
75
100
AcDbEntity
  8
EBENE_1
100
AcDbBlockReference
  2
SW_BLOCK_DIMENSION_16
 10
337.2987953614
 20
86.9691980072
 30
0.0
  0
INSERT
  5
143
330
75
100
AcDbEntity
  8
EBENE_1
100
AcDbBlockReference
  2
SW_BLOCK_DIMENSION_17
 10
337.2987953614
 20
112.3691980072
 30
0.0
  0
INSERT
  5
154
330
75
100
AcDbEntity
  8
EBENE_1
100
AcDbBlockReference
  2
SW_BLOCK_DIMENSION_18
 10
336.8284243759
 20
137.7691980072
 30
0.0
  0
INSERT
  5
165
330
75
100
AcDbEntity
  8
EBENE_1
100
AcDbBlockReference
  2
SW_BLOCK_DIMENSION_19
 10
337.2987953614
 20
163.1691980072
 30
0.0
  0
INSERT
  5
16B
330
75
100
AcDbEntity
  8
EBENE_1
 62
   179
100
AcDbBlockReference
  2
SW_NOTE_0
 10
337.5586028241
 20
28.8175207347
 30
0.0
  0
MTEXT
  5
16C
330
75
100
AcDbEntity
  8
EBENE_1
100
AcDbMText
 10
393.160738319
 20
33.5924424874
 30
0.0
 40
3.7041666667
 41
0.0
 71
     1
 72
     1
  1
mm
  7
SLDTEXTSTYLE0
 73
     1
 44
1.0
  0
ENDBLK
  5
77
330
75
100
AcDbEntity
  8
0
100
AcDbBlockEnd
  0
BLOCK
  5
8D
330
8C
100
AcDbEntity
  8
0
100
AcDbBlockBegin
  2
SW_BLOCK_DIMENSION_0
 70
     0
 10
0.0
 20
0.0
 30
0.0
  3
SW_BLOCK_DIMENSION_0
  1

  0
INSERT
  5
94
330
8C
100
AcDbEntity
  8
EBENE_1
 62
     0
100
AcDbBlockReference
  2
_ORIGIN
 10
-1.5805038061
 20
2.3665509652
 30
0.0
 41
0.9483022837
 42
0.9483022837
 50
0.0
  0
LINE
  5
95
330
8C
100
AcDbEntity
  8
EBENE_1
 62
     0
100
AcDbLine
 10
-6.5262660664
 20
2.3665509652
 30
0.0
 11
0.0
 21
2.3665509652
 31
0.0
  0
MTEXT
  5
97
330
8C
100
AcDbEntity
  8
EBENE_1
 62
     0
100
AcDbMText
 10
0.0
 20
4.0927900738
 30
0.0
 40
3.175
 41
0.0
 71
     1
 72
     1
  1
0
  7
SLDTEXTSTYLE0
 73
     1
 44
1.0
  0
ENDBLK
  5
8E
330
8C
100
AcDbEntity
  8
0
100
AcDbBlockEnd
  0
BLOCK
  5
90
330
8F
100
AcDbEntity
  8
0
100
AcDbBlockBegin
  2
_ORIGIN
 70
     0
 10
0.0
 20
0.0
 30
0.0
  3
_ORIGIN
  1

  0
CIRCLE
  5
92
330
8F
100
AcDbEntity
  8
0
  6
ByBlock
 62
     0
370
    -2
100
AcDbCircle
 10
0.0
 20
0.0
 30
0.0
 40
0.5
  0
LINE
  5
93
330
8F
100
AcDbEntity
  8
0
  6
ByBlock
 62
     0
370
    -2
100
AcDbLine
 10
0.0
 20
0.0
 30
0.0
 11
-1.0
 21
0.0
 31
0.0
  0
ENDBLK
  5
91
330
8F
100
AcDbEntity
  8
0
100
AcDbBlockEnd
  0
BLOCK
  5
9A
330
99
100
AcDbEntity
  8
0
100
AcDbBlockBegin
  2
SW_BLOCK_DIMENSION_1
 70
     0
 10
0.0
 20
0.0
 30
0.0
  3
SW_BLOCK_DIMENSION_1
  1

  0
SOLID
  5
9C
330
99
100
AcDbEntity
  8
EBENE_1
 62
     0
100
AcDbTrace
 10
-1.5805038061
 20
2.3665509652
 30
0.0
 11
-2.0546549479
 21
-0.7154314566
 31
0.0
 12
-1.1063526643
 22
-0.7154314566
 32
0.0
 13
-1.1063526643
 23
-0.7154314566
 33
0.0
  0
LINE
  5
9D
330
99
100
AcDbEntity
  8
EBENE_1
 62
     0
100
AcDbLine
 10
-10.3062660664
 20
2.3665509652
 30
0.0
 11
0.0
 21
2.3665509652
 31
0.0
  0
LINE
  5
9E
330
99
100
AcDbEntity
  8
EBENE_1
 62
     0
100
AcDbLine
 10
-1.5805038061
 20
-7.6334490348
 30
0.0
 11
-1.5805038061
 21
2.3665509652
 31
0.0
  0
MTEXT
  5
9F
330
99
100
AcDbEntity
  8
EBENE_1
 62
     0
100
AcDbMText
 10
0.0
 20
4.0927900738
 30
0.0
 40
3.175
 41
0.0
 71
     1
 72
     1
  1
10
  7
SLDTEXTSTYLE0
 73
     1
 44
1.0
  0
ENDBLK
  5
9B
330
99
100
AcDbEntity
  8
0
100
AcDbBlockEnd
  0
BLOCK
  5
A2
330
A1
100
AcDbEntity
  8
0
100
AcDbBlockBegin
  2
SW_BLOCK_DIMENSION_2
 70
     0
 10
0.0
 20
0.0
 30
0.0
  3
SW_BLOCK_DIMENSION_2
  1

  0
SOLID
  5
A4
330
A1
100
AcDbEntity
  8
EBENE_1
 62
     0
100
AcDbTrace
 10
-1.5805038061
 20
2.3665509652
 30
0.0
 11
-2.0546549479
 21
-0.7154314566
 31
0.0
 12
-1.1063526643
 22
-0.7154314566
 32
0.0
 13
-1.1063526643
 23
-0.7154314566
 33
0.0
  0
LINE
  5
A5
330
A1
100
AcDbEntity
  8
EBENE_1
 62
     0
100
AcDbLine
 10
-10.3062660664
 20
2.3665509652
 30
0.0
 11
0.0
 21
2.3665509652
 31
0.0
  0
LINE
  5
A6
330
A1
100
AcDbEntity
  8
EBENE_1
 62
     0
100
AcDbLine
 10
-1.5805038061
 20
-7.6334490348
 30
0.0
 11
-1.5805038061
 21
2.3665509652
 31
0.0
  0
MTEXT
  5
A7
330
A1
100
AcDbEntity
  8
EBENE_1
 62
     0
100
AcDbMText
 10
0.0
 20
4.0927900738
 30
0.0
 40
3.175
 41
0.0
 71
     1
 72
     1
  1
20
  7
SLDTEXTSTYLE0
 73
     1
 44
1.0
  0
ENDBLK
  5
A3
330
A1
100
AcDbEntity
  8
0
100
AcDbBlockEnd
  0
BLOCK
  5
AA
330
A9
100
AcDbEntity
  8
0
100
AcDbBlockBegin
  2
SW_BLOCK_DIMENSION_3
 70
     0
 10
0.0
 20
0.0
 30
0.0
  3
SW_BLOCK_DIMENSION_3
  1

  0
SOLID
  5
AC
330
A9
100
AcDbEntity
  8
EBENE_1
 62
     0
100
AcDbTrace
 10
-1.5805038061
 20
2.3665509652
 30
0.0
 11
-2.0546549479
 21
-0.7154314566
 31
0.0
 12
-1.1063526643
 22
-0.7154314566
 32
0.0
 13
-1.1063526643
 23
-0.7154314566
 33
0.0
  0
LINE
  5
AD
330
A9
100
AcDbEntity
  8
EBENE_1
 62
     0
100
AcDbLine
 10
-10.3062660664
 20
2.3665509652
 30
0.0
 11
0.0
 21
2.3665509652
 31
0.0
  0
LINE
  5
AE
330
A9
100
AcDbEntity
  8
EBENE_1
 62
     0
100
AcDbLine
 10
-1.5805038061
 20
-7.6334490348
 30
0.0
 11
-1.5805038061
 21
2.3665509652
 31
0.0
  0
MTEXT
  5
AF
330
A9
100
AcDbEntity
  8
EBENE_1
 62
     0
100
AcDbMText
 10
0.0
 20
4.0927900738
 30
0.0
 40
3.175
 41
0.0
 71
     1
 72
     1
  1
30
  7
SLDTEXTSTYLE0
 73
     1
 44
1.0
  0
ENDBLK
  5
AB
330
A9
100
AcDbEntity
  8
0
100
AcDbBlockEnd
  0
BLOCK
  5
B2
330
B1
100
AcDbEntity
  8
0
100
AcDbBlockBegin
  2
SW_BLOCK_DIMENSION_4
 70
     0
 10
0.0
 20
0.0
 30
0.0
  3
SW_BLOCK_DIMENSION_4
  1

  0
SOLID
  5
B4
330
B1
100
AcDbEntity
  8
EBENE_1
 62
     0
100
AcDbTrace
 10
-1.5805038061
 20
2.3665509652
 30
0.0
 11
-2.0546549479
 21
-0.7154314566
 31
0.0
 12
-1.1063526643
 22
-0.7154314566
 32
0.0
 13
-1.1063526643
 23
-0.7154314566
 33
0.0
  0
LINE
  5
B5
330
B1
100
AcDbEntity
  8
EBENE_1
 62
     0
100
AcDbLine
 10
-10.3062660664
 20
2.3665509652
 30
0.0
 11
0.0
 21
2.3665509652
 31
0.0
  0
LINE
  5
B6
330
B1
100
AcDbEntity
  8
EBENE_1
 62
     0
100
AcDbLine
 10
-1.5805038061
 20
-7.6334490348
 30
0.0
 11
-1.5805038061
 21
2.3665509652
 31
0.0
  0
MTEXT
  5
B7
330
B1
100
AcDbEntity
  8
EBENE_1
 62
     0
100
AcDbMText
 10
0.0
 20
4.0927900738
 30
0.0
 40
3.175
 41
0.0
 71
     1
 72
     1
  1
40
  7
SLDTEXTSTYLE0
 73
     1
 44
1.0
  0
ENDBLK
  5
B3
330
B1
100
AcDbEntity
  8
0
100
AcDbBlockEnd
  0
BLOCK
  5
BA
330
B9
100
AcDbEntity
  8
0
100
AcDbBlockBegin
  2
SW_BLOCK_DIMENSION_5
 70
     0
 10
0.0
 20
0.0
 30
0.0
  3
SW_BLOCK_DIMENSION_5
  1

  0
SOLID
  5
BC
330
B9
100
AcDbEntity
  8
EBENE_1
 62
     0
100
AcDbTrace
 10
-1.5805038061
 20
2.3665509652
 30
0.0
 11
-2.0546549479
 21
-0.7154314566
 31
0.0
 12
-1.1063526643
 22
-0.7154314566
 32
0.0
 13
-1.1063526643
 23
-0.7154314566
 33
0.0
  0
LINE
  5
BD
330
B9
100
AcDbEntity
  8
EBENE_1
 62
     0
100
AcDbLine
 10
-10.3062660664
 20
2.3665509652
 30
0.0
 11
0.0
 21
2.3665509652
 31
0.0
  0
LINE
  5
BE
330
B9
100
AcDbEntity
  8
EBENE_1
 62
     0
100
AcDbLine
 10
-1.5805038061
 20
-7.6334490348
 30
0.0
 11
-1.5805038061
 21
2.3665509652
 31
0.0
  0
MTEXT
  5
BF
330
B9
100
AcDbEntity
  8
EBENE_1
 62
     0
100
AcDbMText
 10
0.0
 20
4.0927900738
 30
0.0
 40
3.175
 41
0.0
 71
     1
 72
     1
  1
50
  7
SLDTEXTSTYLE0
 73
     1
 44
1.0
  0
ENDBLK
  5
BB
330
B9
100
AcDbEntity
  8
0
100
AcDbBlockEnd
  0
BLOCK
  5
C2
330
C1
100
AcDbEntity
  8
0
100
AcDbBlockBegin
  2
SW_BLOCK_DIMENSION_6
 70
     0
 10
0.0
 20
0.0
 30
0.0
  3
SW_BLOCK_DIMENSION_6
  1

  0
SOLID
  5
C4
330
C1
100
AcDbEntity
  8
EBENE_1
 62
     0
100
AcDbTrace
 10
-1.5805038061
 20
2.3665509652
 30
0.0
 11
-2.0546549479
 21
-0.7154314566
 31
0.0
 12
-1.1063526643
 22
-0.7154314566
 32
0.0
 13
-1.1063526643
 23
-0.7154314566
 33
0.0
  0
LINE
  5
C5
330
C1
100
AcDbEntity
  8
EBENE_1
 62
     0
100
AcDbLine
 10
-10.3062660664
 20
2.3665509652
 30
0.0
 11
0.0
 21
2.3665509652
 31
0.0
  0
LINE
  5
C6
330
C1
100
AcDbEntity
  8
EBENE_1
 62
     0
100
AcDbLine
 10
-1.5805038061
 20
-7.6334490348
 30
0.0
 11
-1.5805038061
 21
2.3665509652
 31
0.0
  0
MTEXT
  5
C7
330
C1
100
AcDbEntity
  8
EBENE_1
 62
     0
100
AcDbMText
 10
0.0
 20
4.0927900738
 30
0.0
 40
3.175
 41
0.0
 71
     1
 72
     1
  1
60
  7
SLDTEXTSTYLE0
 73
     1
 44
1.0
  0
ENDBLK
  5
C3
330
C1
100
AcDbEntity
  8
0
100
AcDbBlockEnd
  0
BLOCK
  5
CA
330
C9
100
AcDbEntity
  8
0
100
AcDbBlockBegin
  2
SW_BLOCK_DIMENSION_7
 70
     0
 10
0.0
 20
0.0
 30
0.0
  3
SW_BLOCK_DIMENSION_7
  1

  0
SOLID
  5
CC
330
C9
100
AcDbEntity
  8
EBENE_1
 62
     0
100
AcDbTrace
 10
-1.5805038061
 20
2.3665509652
 30
0.0
 11
-2.0546549479
 21
-0.7154314566
 31
0.0
 12
-1.1063526643
 22
-0.7154314566
 32
0.0
 13
-1.1063526643
 23
-0.7154314566
 33
0.0
  0
LINE
  5
CD
330
C9
100
AcDbEntity
  8
EBENE_1
 62
     0
100
AcDbLine
 10
-10.3062660664
 20
2.3665509652
 30
0.0
 11
0.0
 21
2.3665509652
 31
0.0
  0
LINE
  5
CE
330
C9
100
AcDbEntity
  8
EBENE_1
 62
     0
100
AcDbLine
 10
-1.5805038061
 20
-7.6334490348
 30
0.0
 11
-1.5805038061
 21
2.3665509652
 31
0.0
  0
MTEXT
  5
CF
330
C9
100
AcDbEntity
  8
EBENE_1
 62
     0
100
AcDbMText
 10
0.0
 20
4.0927900738
 30
0.0
 40
3.175
 41
0.0
 71
     1
 72
     1
  1
70
  7
SLDTEXTSTYLE0
 73
     1
 44
1.0
  0
ENDBLK
  5
CB
330
C9
100
AcDbEntity
  8
0
100
AcDbBlockEnd
  0
BLOCK
  5
D2
330
D1
100
AcDbEntity
  8
0
100
AcDbBlockBegin
  2
SW_BLOCK_DIMENSION_8
 70
     0
 10
0.0
 20
0.0
 30
0.0
  3
SW_BLOCK_DIMENSION_8
  1

  0
SOLID
  5
D4
330
D1
100
AcDbEntity
  8
EBENE_1
 62
     0
100
AcDbTrace
 10
-1.5805038061
 20
2.3665509652
 30
0.0
 11
-2.0546549479
 21
-0.7154314566
 31
0.0
 12
-1.1063526643
 22
-0.7154314566
 32
0.0
 13
-1.1063526643
 23
-0.7154314566
 33
0.0
  0
LINE
  5
D5
330
D1
100
AcDbEntity
  8
EBENE_1
 62
     0
100
AcDbLine
 10
-10.3062660664
 20
2.3665509652
 30
0.0
 11
0.0
 21
2.3665509652
 31
0.0
  0
LINE
  5
D6
330
D1
100
AcDbEntity
  8
EBENE_1
 62
     0
100
AcDbLine
 10
-1.5805038061
 20
-7.6334490348
 30
0.0
 11
-1.5805038061
 21
2.3665509652
 31
0.0
  0
MTEXT
  5
D7
330
D1
100
AcDbEntity
  8
EBENE_1
 62
     0
100
AcDbMText
 10
0.0
 20
4.0927900738
 30
0.0
 40
3.175
 41
0.0
 71
     1
 72
     1
  1
80
  7
SLDTEXTSTYLE0
 73
     1
 44
1.0
  0
ENDBLK
  5
D3
330
D1
100
AcDbEntity
  8
0
100
AcDbBlockEnd
  0
BLOCK
  5
DA
330
D9
100
AcDbEntity
  8
0
100
AcDbBlockBegin
  2
SW_BLOCK_DIMENSION_9
 70
     0
 10
0.0
 20
0.0
 30
0.0
  3
SW_BLOCK_DIMENSION_9
  1

  0
SOLID
  5
DC
330
D9
100
AcDbEntity
  8
EBENE_1
 62
     0
100
AcDbTrace
 10
-1.5805038061
 20
2.3665509652
 30
0.0
 11
-2.0546549479
 21
-0.7154314566
 31
0.0
 12
-1.1063526643
 22
-0.7154314566
 32
0.0
 13
-1.1063526643
 23
-0.7154314566
 33
0.0
  0
LINE
  5
DD
330
D9
100
AcDbEntity
  8
EBENE_1
 62
     0
100
AcDbLine
 10
-10.3062660664
 20
2.3665509652
 30
0.0
 11
0.0
 21
2.3665509652
 31
0.0
  0
LINE
  5
DE
330
D9
100
AcDbEntity
  8
EBENE_1
 62
     0
100
AcDbLine
 10
-1.5805038061
 20
-7.6334490348
 30
0.0
 11
-1.5805038061
 21
2.3665509652
 31
0.0
  0
MTEXT
  5
DF
330
D9
100
AcDbEntity
  8
EBENE_1
 62
     0
100
AcDbMText
 10
0.0
 20
4.0927900738
 30
0.0
 40
3.175
 41
0.0
 71
     1
 72
     1
  1
90
  7
SLDTEXTSTYLE0
 73
     1
 44
1.0
  0
ENDBLK
  5
DB
330
D9
100
AcDbEntity
  8
0
100
AcDbBlockEnd
  0
BLOCK
  5
E2
330
E1
100
AcDbEntity
  8
0
100
AcDbBlockBegin
  2
SW_BLOCK_DIMENSION_10
 70
     0
 10
0.0
 20
0.0
 30
0.0
  3
SW_BLOCK_DIMENSION_10
  1

  0
SOLID
  5
E4
330
E1
100
AcDbEntity
  8
EBENE_1
 62
     0
100
AcDbTrace
 10
-1.5805038061
 20
2.3665509652
 30
0.0
 11
-2.0546549479
 21
-0.7154314566
 31
0.0
 12
-1.1063526643
 22
-0.7154314566
 32
0.0
 13
-1.1063526643
 23
-0.7154314566
 33
0.0
  0
LINE
  5
E5
330
E1
100
AcDbEntity
  8
EBENE_1
 62
     0
100
AcDbLine
 10
-10.3062660664
 20
2.3665509652
 30
0.0
 11
0.0
 21
2.3665509652
 31
0.0
  0
LINE
  5
E6
330
E1
100
AcDbEntity
  8
EBENE_1
 62
     0
100
AcDbLine
 10
-1.5805038061
 20
-7.6334490348
 30
0.0
 11
-1.5805038061
 21
2.3665509652
 31
0.0
  0
MTEXT
  5
E7
330
E1
100
AcDbEntity
  8
EBENE_1
 62
     0
100
AcDbMText
 10
0.0
 20
4.0927900738
 30
0.0
 40
3.175
 41
0.0
 71
     1
 72
     1
  1
100
  7
SLDTEXTSTYLE0
 73
     1
 44
1.0
  0
ENDBLK
  5
E3
330
E1
100
AcDbEntity
  8
0
100
AcDbBlockEnd
  0
BLOCK
  5
EA
330
E9
100
AcDbEntity
  8
0
100
AcDbBlockBegin
  2
SW_BLOCK_DIMENSION_11
 70
     0
 10
0.0
 20
0.0
 30
0.0
  3
SW_BLOCK_DIMENSION_11
  1

  0
SOLID
  5
EC
330
E9
100
AcDbEntity
  8
EBENE_1
 62
     0
100
AcDbTrace
 10
-1.5805038061
 20
2.3665509652
 30
0.0
 11
-2.0546549479
 21
-0.7154314566
 31
0.0
 12
-1.1063526643
 22
-0.7154314566
 32
0.0
 13
-1.1063526643
 23
-0.7154314566
 33
0.0
  0
LINE
  5
ED
330
E9
100
AcDbEntity
  8
EBENE_1
 62
     0
100
AcDbLine
 10
-10.3062660664
 20
2.3665509652
 30
0.0
 11
0.0
 21
2.3665509652
 31
0.0
  0
LINE
  5
EE
330
E9
100
AcDbEntity
  8
EBENE_1
 62
     0
100
AcDbLine
 10
-1.5805038061
 20
-7.6334490348
 30
0.0
 11
-1.5805038061
 21
2.3665509652
 31
0.0
  0
MTEXT
  5
EF
330
E9
100
AcDbEntity
  8
EBENE_1
 62
     0
100
AcDbMText
 10
0.0
 20
4.0927900738
 30
0.0
 40
3.175
 41
0.0
 71
     1
 72
     1
  1
110
  7
SLDTEXTSTYLE0
 73
     1
 44
1.0
  0
ENDBLK
  5
EB
330
E9
100
AcDbEntity
  8
0
100
AcDbBlockEnd
  0
BLOCK
  5
F2
330
F1
100
AcDbEntity
  8
0
100
AcDbBlockBegin
  2
SW_BLOCK_DIMENSION_12
 70
     0
 10
0.0
 20
0.0
 30
0.0
  3
SW_BLOCK_DIMENSION_12
  1

  0
SOLID
  5
F4
330
F1
100
AcDbEntity
  8
EBENE_1
 62
     0
100
AcDbTrace
 10
-1.5805038061
 20
2.3665509652
 30
0.0
 11
-2.0546549479
 21
-0.7154314566
 31
0.0
 12
-1.1063526643
 22
-0.7154314566
 32
0.0
 13
-1.1063526643
 23
-0.7154314566
 33
0.0
  0
LINE
  5
F5
330
F1
100
AcDbEntity
  8
EBENE_1
 62
     0
100
AcDbLine
 10
-10.3062660664
 20
2.3665509652
 30
0.0
 11
0.0
 21
2.3665509652
 31
0.0
  0
LINE
  5
F6
330
F1
100
AcDbEntity
  8
EBENE_1
 62
     0
100
AcDbLine
 10
-1.5805038061
 20
-7.6334490348
 30
0.0
 11
-1.5805038061
 21
2.3665509652
 31
0.0
  0
MTEXT
  5
F7
330
F1
100
AcDbEntity
  8
EBENE_1
 62
     0
100
AcDbMText
 10
0.0
 20
4.0927900738
 30
0.0
 40
3.175
 41
0.0
 71
     1
 72
     1
  1
120
  7
SLDTEXTSTYLE0
 73
     1
 44
1.0
  0
ENDBLK
  5
F3
330
F1
100
AcDbEntity
  8
0
100
AcDbBlockEnd
  0
BLOCK
  5
FA
330
F9
100
AcDbEntity
  8
0
100
AcDbBlockBegin
  2
SW_BLOCK_DIMENSION_13
 70
     0
 10
0.0
 20
0.0
 30
0.0
  3
SW_BLOCK_DIMENSION_13
  1

  0
SOLID
  5
FC
330
F9
100
AcDbEntity
  8
EBENE_1
 62
     0
100
AcDbTrace
 10
-1.5805038061
 20
2.3665509652
 30
0.0
 11
-2.0546549479
 21
-0.7154314566
 31
0.0
 12
-1.1063526643
 22
-0.7154314566
 32
0.0
 13
-1.1063526643
 23
-0.7154314566
 33
0.0
  0
LINE
  5
FD
330
F9
100
AcDbEntity
  8
EBENE_1
 62
     0
100
AcDbLine
 10
-10.3062660664
 20
2.3665509652
 30
0.0
 11
0.0
 21
2.3665509652
 31
0.0
  0
LINE
  5
FE
330
F9
100
AcDbEntity
  8
EBENE_1
 62
     0
100
AcDbLine
 10
-1.5805038061
 20
-7.6334490348
 30
0.0
 11
-1.5805038061
 21
2.3665509652
 31
0.0
  0
MTEXT
  5
FF
330
F9
100
AcDbEntity
  8
EBENE_1
 62
     0
100
AcDbMText
 10
0.0
 20
4.0927900738
 30
0.0
 40
3.175
 41
0.0
 71
     1
 72
     1
  1
130
  7
SLDTEXTSTYLE0
 73
     1
 44
1.0
  0
ENDBLK
  5
FB
330
F9
100
AcDbEntity
  8
0
100
AcDbBlockEnd
  0
BLOCK
  5
102
330
101
100
AcDbEntity
  8
0
100
AcDbBlockBegin
  2
SW_BLOCK_DIMENSION_14
 70
     0
 10
0.0
 20
0.0
 30
0.0
  3
SW_BLOCK_DIMENSION_14
  1

  0
INSERT
  5
104
330
101
100
AcDbEntity
  8
EBENE_1
 62
     0
100
AcDbBlockReference
  2
_ORIGIN
 10
16.3971707594
 20
5.1887726877
 30
0.0
 41
0.9483022837
 42
0.9483022837
 50
0.0
  0
LINE
  5
105
330
101
100
AcDbEntity
  8
EBENE_1
 62
     0
100
AcDbLine
 10
3.2925925916
 20
9.671990294
 30
0.0
 11
2.2342592711
 21
9.671990294
 31
0.0
  0
LINE
  5
106
330
101
100
AcDbEntity
  8
EBENE_1
 62
     0
100
AcDbLine
 10
2.2342592711
 20
9.671990294
 30
0.0
 11
2.2342592711
 21
4.9388883635
 31
0.0
  0
LINE
  5
107
330
101
100
AcDbEntity
  8
EBENE_1
 62
     0
100
AcDbLine
 10
2.2342592711
 20
4.9388883635
 30
0.0
 11
3.2925925916
 21
4.9388883635
 31
0.0
  0
LINE
  5
108
330
101
100
AcDbEntity
  8
EBENE_1
 62
     0
100
AcDbLine
 10
11.5240741288
 20
9.671990294
 30
0.0
 11
12.5824074494
 21
9.671990294
 31
0.0
  0
LINE
  5
109
330
101
100
AcDbEntity
  8
EBENE_1
 62
     0
100
AcDbLine
 10
12.5824074494
 20
9.671990294
 30
0.0
 11
12.5824074494
 21
4.9388883635
 31
0.0
  0
LINE
  5
10A
330
101
100
AcDbEntity
  8
EBENE_1
 62
     0
100
AcDbLine
 10
12.5824074494
 20
4.9388883635
 30
0.0
 11
11.5240741288
 21
4.9388883635
 31
0.0
  0
LINE
  5
10B
330
101
100
AcDbEntity
  8
EBENE_1
 62
     0
100
AcDbLine
 10
24.38463321
 20
5.1887726877
 30
0.0
 11
14.8166669533
 21
5.1887726877
 31
0.0
  0
MTEXT
  5
10C
330
101
100
AcDbEntity
  8
EBENE_1
 62
     0
100
AcDbMText
 10
1.190625
 20
4.0927900738
 30
0.0
 40
3.175
 41
0.0
 71
     1
 72
     1
  1

  7
SLDTEXTSTYLE0
 73
     1
 44
1.0
  0
MTEXT
  5
10D
330
101
100
AcDbEntity
  8
EBENE_1
 62
     0
100
AcDbMText
 10
3.2925925916
 20
9.0316784373
 30
0.0
 40
3.175
 41
0.0
 71
     1
 72
     1
  1
0,00
  7
SLDTEXTSTYLE0
 73
     1
 44
1.0
  0
MTEXT
  5
10E
330
101
100
AcDbEntity
  8
EBENE_1
 62
     0
100
AcDbMText
 10
6.2324074097
 20
4.0927898409
 30
0.0
 40
3.175
 41
0.0
 71
     1
 72
     1
  1
0
  7
SLDTEXTSTYLE0
 73
     1
 44
1.0
  0
MTEXT
  5
10F
330
101
100
AcDbEntity
  8
EBENE_1
 62
     0
100
AcDbMText
 10
14.8313658863
 20
4.0927900738
 30
0.0
 40
3.175
 41
0.0
 71
     1
 72
     1
  1

  7
SLDTEXTSTYLE0
 73
     1
 44
1.0
  0
ENDBLK
  5
103
330
101
100
AcDbEntity
  8
0
100
AcDbBlockEnd
  0
BLOCK
  5
112
330
111
100
AcDbEntity
  8
0
100
AcDbBlockBegin
  2
SW_BLOCK_DIMENSION_15
 70
     0
 10
0.0
 20
0.0
 30
0.0
  3
SW_BLOCK_DIMENSION_15
  1

  0
SOLID
  5
114
330
111
100
AcDbEntity
  8
EBENE_1
 62
     0
100
AcDbTrace
 10
16.3971707594
 20
5.1887726877
 30
0.0
 11
15.9230196175
 21
2.1067902658
 31
0.0
 12
16.8713219012
 22
2.1067902658
 32
0.0
 13
16.8713219012
 23
2.1067902658
 33
0.0
  0
LINE
  5
115
330
111
100
AcDbEntity
  8
EBENE_1
 62
     0
100
AcDbLine
 10
3.2925925916
 20
9.671990294
 30
0.0
 11
2.2342592711
 21
9.671990294
 31
0.0
  0
LINE
  5
116
330
111
100
AcDbEntity
  8
EBENE_1
 62
     0
100
AcDbLine
 10
2.2342592711
 20
9.671990294
 30
0.0
 11
2.2342592711
 21
4.9388883635
 31
0.0
  0
LINE
  5
117
330
111
100
AcDbEntity
  8
EBENE_1
 62
     0
100
AcDbLine
 10
2.2342592711
 20
4.9388883635
 30
0.0
 11
3.2925925916
 21
4.9388883635
 31
0.0
  0
LINE
  5
118
330
111
100
AcDbEntity
  8
EBENE_1
 62
     0
100
AcDbLine
 10
11.5240741288
 20
9.671990294
 30
0.0
 11
12.5824074494
 21
9.671990294
 31
0.0
  0
LINE
  5
119
330
111
100
AcDbEntity
  8
EBENE_1
 62
     0
100
AcDbLine
 10
12.5824074494
 20
9.671990294
 30
0.0
 11
12.5824074494
 21
4.9388883635
 31
0.0
  0
LINE
  5
11A
330
111
100
AcDbEntity
  8
EBENE_1
 62
     0
100
AcDbLine
 10
12.5824074494
 20
4.9388883635
 30
0.0
 11
11.5240741288
 21
4.9388883635
 31
0.0
  0
LINE
  5
11B
330
111
100
AcDbEntity
  8
EBENE_1
 62
     0
100
AcDbLine
 10
23.60463321
 20
5.1887726877
 30
0.0
 11
14.8166669533
 21
5.1887726877
 31
0.0
  0
LINE
  5
11C
330
111
100
AcDbEntity
  8
EBENE_1
 62
     0
100
AcDbLine
 10
16.3971707594
 20
-20.2112273123
 30
0.0
 11
16.3971707594
 21
5.1887726877
 31
0.0
  0
MTEXT
  5
11D
330
111
100
AcDbEntity
  8
EBENE_1
 62
     0
100
AcDbMText
 10
1.190625
 20
4.0927900738
 30
0.0
 40
3.175
 41
0.0
 71
     1
 72
     1
  1

  7
SLDTEXTSTYLE0
 73
     1
 44
1.0
  0
MTEXT
  5
11E
330
111
100
AcDbEntity
  8
EBENE_1
 62
     0
100
AcDbMText
 10
3.2925925916
 20
9.0316784373
 30
0.0
 40
3.175
 41
0.0
 71
     1
 72
     1
  1
1,00
  7
SLDTEXTSTYLE0
 73
     1
 44
1.0
  0
MTEXT
  5
11F
330
111
100
AcDbEntity
  8
EBENE_1
 62
     0
100
AcDbMText
 10
2.1166665247
 20
4.0927898409
 30
0.0
 40
3.175
 41
0.0
 71
     1
 72
     1
  1
25,40
  7
SLDTEXTSTYLE0
 73
     1
 44
1.0
  0
MTEXT
  5
120
330
111
100
AcDbEntity
  8
EBENE_1
 62
     0
100
AcDbMText
 10
14.8313658863
 20
4.0927900738
 30
0.0
 40
3.175
 41
0.0
 71
     1
 72
     1
  1

  7
SLDTEXTSTYLE0
 73
     1
 44
1.0
  0
ENDBLK
  5
113
330
111
100
AcDbEntity
  8
0
100
AcDbBlockEnd
  0
BLOCK
  5
123
330
122
100
AcDbEntity
  8
0
100
AcDbBlockBegin
  2
SW_BLOCK_DIMENSION_16
 70
     0
 10
0.0
 20
0.0
 30
0.0
  3
SW_BLOCK_DIMENSION_16
  1

  0
SOLID
  5
125
330
122
100
AcDbEntity
  8
EBENE_1
 62
     0
100
AcDbTrace
 10
16.3971707594
 20
5.1887726877
 30
0.0
 11
15.9230196175
 21
2.1067902658
 31
0.0
 12
16.8713219012
 22
2.1067902658
 32
0.0
 13
16.8713219012
 23
2.1067902658
 33
0.0
  0
LINE
  5
126
330
122
100
AcDbEntity
  8
EBENE_1
 62
     0
100
AcDbLine
 10
3.2925925916
 20
9.671990294
 30
0.0
 11
2.2342592711
 21
9.671990294
 31
0.0
  0
LINE
  5
127
330
122
100
AcDbEntity
  8
EBENE_1
 62
     0
100
AcDbLine
 10
2.2342592711
 20
9.671990294
 30
0.0
 11
2.2342592711
 21
4.9388883635
 31
0.0
  0
LINE
  5
128
330
122
100
AcDbEntity
  8
EBENE_1
 62
     0
100
AcDbLine
 10
2.2342592711
 20
4.9388883635
 30
0.0
 11
3.2925925916
 21
4.9388883635
 31
0.0
  0
LINE
  5
129
330
122
100
AcDbEntity
  8
EBENE_1
 62
     0
100
AcDbLine
 10
11.5240741288
 20
9.671990294
 30
0.0
 11
12.5824074494
 21
9.671990294
 31
0.0
  0
LINE
  5
12A
330
122
100
AcDbEntity
  8
EBENE_1
 62
     0
100
AcDbLine
 10
12.5824074494
 20
9.671990294
 30
0.0
 11
12.5824074494
 21
4.9388883635
 31
0.0
  0
LINE
  5
12B
330
122
100
AcDbEntity
  8
EBENE_1
 62
     0
100
AcDbLine
 10
12.5824074494
 20
4.9388883635
 30
0.0
 11
11.5240741288
 21
4.9388883635
 31
0.0
  0
LINE
  5
12C
330
122
100
AcDbEntity
  8
EBENE_1
 62
     0
100
AcDbLine
 10
23.60463321
 20
5.1887726877
 30
0.0
 11
14.8166669533
 21
5.1887726877
 31
0.0
  0
LINE
  5
12D
330
122
100
AcDbEntity
  8
EBENE_1
 62
     0
100
AcDbLine
 10
16.3971707594
 20
-20.2112273123
 30
0.0
 11
16.3971707594
 21
5.1887726877
 31
0.0
  0
MTEXT
  5
12E
330
122
100
AcDbEntity
  8
EBENE_1
 62
     0
100
AcDbMText
 10
1.190625
 20
4.0927900738
 30
0.0
 40
3.175
 41
0.0
 71
     1
 72
     1
  1

  7
SLDTEXTSTYLE0
 73
     1
 44
1.0
  0
MTEXT
  5
12F
330
122
100
AcDbEntity
  8
EBENE_1
 62
     0
100
AcDbMText
 10
3.2925925916
 20
9.0316784373
 30
0.0
 40
3.175
 41
0.0
 71
     1
 72
     1
  1
2,00
  7
SLDTEXTSTYLE0
 73
     1
 44
1.0
  0
MTEXT
  5
130
330
122
100
AcDbEntity
  8
EBENE_1
 62
     0
100
AcDbMText
 10
2.1166665247
 20
4.0927898409
 30
0.0
 40
3.175
 41
0.0
 71
     1
 72
     1
  1
50,80
  7
SLDTEXTSTYLE0
 73
     1
 44
1.0
  0
MTEXT
  5
131
330
122
100
AcDbEntity
  8
EBENE_1
 62
     0
100
AcDbMText
 10
14.8313658863
 20
4.0927900738
 30
0.0
 40
3.175
 41
0.0
 71
     1
 72
     1
  1

  7
SLDTEXTSTYLE0
 73
     1
 44
1.0
  0
ENDBLK
  5
124
330
122
100
AcDbEntity
  8
0
100
AcDbBlockEnd
  0
BLOCK
  5
134
330
133
100
AcDbEntity
  8
0
100
AcDbBlockBegin
  2
SW_BLOCK_DIMENSION_17
 70
     0
 10
0.0
 20
0.0
 30
0.0
  3
SW_BLOCK_DIMENSION_17
  1

  0
SOLID
  5
136
330
133
100
AcDbEntity
  8
EBENE_1
 62
     0
100
AcDbTrace
 10
16.3971707594
 20
5.1887726877
 30
0.0
 11
15.9230196175
 21
2.1067902658
 31
0.0
 12
16.8713219012
 22
2.1067902658
 32
0.0
 13
16.8713219012
 23
2.1067902658
 33
0.0
  0
LINE
  5
137
330
133
100
AcDbEntity
  8
EBENE_1
 62
     0
100
AcDbLine
 10
3.2925925916
 20
9.671990294
 30
0.0
 11
2.2342592711
 21
9.671990294
 31
0.0
  0
LINE
  5
138
330
133
100
AcDbEntity
  8
EBENE_1
 62
     0
100
AcDbLine
 10
2.2342592711
 20
9.671990294
 30
0.0
 11
2.2342592711
 21
4.9388883635
 31
0.0
  0
LINE
  5
139
330
133
100
AcDbEntity
  8
EBENE_1
 62
     0
100
AcDbLine
 10
2.2342592711
 20
4.9388883635
 30
0.0
 11
3.2925925916
 21
4.9388883635
 31
0.0
  0
LINE
  5
13A
330
133
100
AcDbEntity
  8
EBENE_1
 62
     0
100
AcDbLine
 10
11.5240741288
 20
9.671990294
 30
0.0
 11
12.5824074494
 21
9.671990294
 31
0.0
  0
LINE
  5
13B
330
133
100
AcDbEntity
  8
EBENE_1
 62
     0
100
AcDbLine
 10
12.5824074494
 20
9.671990294
 30
0.0
 11
12.5824074494
 21
4.9388883635
 31
0.0
  0
LINE
  5
13C
330
133
100
AcDbEntity
  8
EBENE_1
 62
     0
100
AcDbLine
 10
12.5824074494
 20
4.9388883635
 30
0.0
 11
11.5240741288
 21
4.9388883635
 31
0.0
  0
LINE
  5
13D
330
133
100
AcDbEntity
  8
EBENE_1
 62
     0
100
AcDbLine
 10
23.60463321
 20
5.1887726877
 30
0.0
 11
14.8166669533
 21
5.1887726877
 31
0.0
  0
LINE
  5
13E
330
133
100
AcDbEntity
  8
EBENE_1
 62
     0
100
AcDbLine
 10
16.3971707594
 20
-20.2112273123
 30
0.0
 11
16.3971707594
 21
5.1887726877
 31
0.0
  0
MTEXT
  5
13F
330
133
100
AcDbEntity
  8
EBENE_1
 62
     0
100
AcDbMText
 10
1.190625
 20
4.0927900738
 30
0.0
 40
3.175
 41
0.0
 71
     1
 72
     1
  1

  7
SLDTEXTSTYLE0
 73
     1
 44
1.0
  0
MTEXT
  5
140
330
133
100
AcDbEntity
  8
EBENE_1
 62
     0
100
AcDbMText
 10
3.2925925916
 20
9.0316784373
 30
0.0
 40
3.175
 41
0.0
 71
     1
 72
     1
  1
3,00
  7
SLDTEXTSTYLE0
 73
     1
 44
1.0
  0
MTEXT
  5
141
330
133
100
AcDbEntity
  8
EBENE_1
 62
     0
100
AcDbMText
 10
2.1166665247
 20
4.0927898409
 30
0.0
 40
3.175
 41
0.0
 71
     1
 72
     1
  1
76,20
  7
SLDTEXTSTYLE0
 73
     1
 44
1.0
  0
MTEXT
  5
142
330
133
100
AcDbEntity
  8
EBENE_1
 62
     0
100
AcDbMText
 10
14.8313658863
 20
4.0927900738
 30
0.0
 40
3.175
 41
0.0
 71
     1
 72
     1
  1

  7
SLDTEXTSTYLE0
 73
     1
 44
1.0
  0
ENDBLK
  5
135
330
133
100
AcDbEntity
  8
0
100
AcDbBlockEnd
  0
BLOCK
  5
145
330
144
100
AcDbEntity
  8
0
100
AcDbBlockBegin
  2
SW_BLOCK_DIMENSION_18
 70
     0
 10
0.0
 20
0.0
 30
0.0
  3
SW_BLOCK_DIMENSION_18
  1

  0
SOLID
  5
147
330
144
100
AcDbEntity
  8
EBENE_1
 62
     0
100
AcDbTrace
 10
16.8675417449
 20
5.1887726877
 30
0.0
 11
16.3933906031
 21
2.1067902658
 31
0.0
 12
17.3416928868
 22
2.1067902658
 32
0.0
 13
17.3416928868
 23
2.1067902658
 33
0.0
  0
LINE
  5
148
330
144
100
AcDbEntity
  8
EBENE_1
 62
     0
100
AcDbLine
 10
3.5277780844
 20
9.671990294
 30
0.0
 11
2.4694447638
 21
9.671990294
 31
0.0
  0
LINE
  5
149
330
144
100
AcDbEntity
  8
EBENE_1
 62
     0
100
AcDbLine
 10
2.4694447638
 20
9.671990294
 30
0.0
 11
2.4694447638
 21
4.9388883635
 31
0.0
  0
LINE
  5
14A
330
144
100
AcDbEntity
  8
EBENE_1
 62
     0
100
AcDbLine
 10
2.4694447638
 20
4.9388883635
 30
0.0
 11
3.5277780844
 21
4.9388883635
 31
0.0
  0
LINE
  5
14B
330
144
100
AcDbEntity
  8
EBENE_1
 62
     0
100
AcDbLine
 10
11.7592596216
 20
9.671990294
 30
0.0
 11
12.8175929422
 21
9.671990294
 31
0.0
  0
LINE
  5
14C
330
144
100
AcDbEntity
  8
EBENE_1
 62
     0
100
AcDbLine
 10
12.8175929422
 20
9.671990294
 30
0.0
 11
12.8175929422
 21
4.9388883635
 31
0.0
  0
LINE
  5
14D
330
144
100
AcDbEntity
  8
EBENE_1
 62
     0
100
AcDbLine
 10
12.8175929422
 20
4.9388883635
 30
0.0
 11
11.7592596216
 21
4.9388883635
 31
0.0
  0
LINE
  5
14E
330
144
100
AcDbEntity
  8
EBENE_1
 62
     0
100
AcDbLine
 10
24.0750041956
 20
5.1887726877
 30
0.0
 11
15.2870379388
 21
5.1887726877
 31
0.0
  0
LINE
  5
14F
330
144
100
AcDbEntity
  8
EBENE_1
 62
     0
100
AcDbLine
 10
16.8675417449
 20
-20.2112273123
 30
0.0
 11
16.8675417449
 21
5.1887726877
 31
0.0
  0
MTEXT
  5
150
330
144
100
AcDbEntity
  8
EBENE_1
 62
     0
100
AcDbMText
 10
1.190625
 20
4.0927900738
 30
0.0
 40
3.175
 41
0.0
 71
     1
 72
     1
  1

  7
SLDTEXTSTYLE0
 73
     1
 44
1.0
  0
MTEXT
  5
151
330
144
100
AcDbEntity
  8
EBENE_1
 62
     0
100
AcDbMText
 10
3.5277780844
 20
9.0316784373
 30
0.0
 40
3.175
 41
0.0
 71
     1
 72
     1
  1
4,00
  7
SLDTEXTSTYLE0
 73
     1
 44
1.0
  0
MTEXT
  5
152
330
144
100
AcDbEntity
  8
EBENE_1
 62
     0
100
AcDbMText
 10
1.1759259505
 20
4.0927898409
 30
0.0
 40
3.175
 41
0.0
 71
     1
 72
     1
  1
101,60
  7
SLDTEXTSTYLE0
 73
     1
 44
1.0
  0
MTEXT
  5
153
330
144
100
AcDbEntity
  8
EBENE_1
 62
     0
100
AcDbMText
 10
15.3017368719
 20
4.0927900738
 30
0.0
 40
3.175
 41
0.0
 71
     1
 72
     1
  1

  7
SLDTEXTSTYLE0
 73
     1
 44
1.0
  0
ENDBLK
  5
146
330
144
100
AcDbEntity
  8
0
100
AcDbBlockEnd
  0
BLOCK
  5
156
330
155
100
AcDbEntity
  8
0
100
AcDbBlockBegin
  2
SW_BLOCK_DIMENSION_19
 70
     0
 10
0.0
 20
0.0
 30
0.0
  3
SW_BLOCK_DIMENSION_19
  1

  0
SOLID
  5
158
330
155
100
AcDbEntity
  8
EBENE_1
 62
     0
100
AcDbTrace
 10
16.3971707594
 20
5.1887726877
 30
0.0
 11
15.9230196175
 21
2.1067902658
 31
0.0
 12
16.8713219012
 22
2.1067902658
 32
0.0
 13
16.8713219012
 23
2.1067902658
 33
0.0
  0
LINE
  5
159
330
155
100
AcDbEntity
  8
EBENE_1
 62
     0
100
AcDbLine
 10
3.2925925916
 20
9.671990294
 30
0.0
 11
2.2342592711
 21
9.671990294
 31
0.0
  0
LINE
  5
15A
330
155
100
AcDbEntity
  8
EBENE_1
 62
     0
100
AcDbLine
 10
2.2342592711
 20
9.671990294
 30
0.0
 11
2.2342592711
 21
4.9388883635
 31
0.0
  0
LINE
  5
15B
330
155
100
AcDbEntity
  8
EBENE_1
 62
     0
100
AcDbLine
 10
2.2342592711
 20
4.9388883635
 30
0.0
 11
3.2925925916
 21
4.9388883635
 31
0.0
  0
LINE
  5
15C
330
155
100
AcDbEntity
  8
EBENE_1
 62
     0
100
AcDbLine
 10
11.5240741288
 20
9.671990294
 30
0.0
 11
12.5824074494
 21
9.671990294
 31
0.0
  0
LINE
  5
15D
330
155
100
AcDbEntity
  8
EBENE_1
 62
     0
100
AcDbLine
 10
12.5824074494
 20
9.671990294
 30
0.0
 11
12.5824074494
 21
4.9388883635
 31
0.0
  0
LINE
  5
15E
330
155
100
AcDbEntity
  8
EBENE_1
 62
     0
100
AcDbLine
 10
12.5824074494
 20
4.9388883635
 30
0.0
 11
11.5240741288
 21
4.9388883635
 31
0.0
  0
LINE
  5
15F
330
155
100
AcDbEntity
  8
EBENE_1
 62
     0
100
AcDbLine
 10
23.60463321
 20
5.1887726877
 30
0.0
 11
14.8166669533
 21
5.1887726877
 31
0.0
  0
LINE
  5
160
330
155
100
AcDbEntity
  8
EBENE_1
 62
     0
100
AcDbLine
 10
16.3971707594
 20
-20.2112273123
 30
0.0
 11
16.3971707594
 21
5.1887726877
 31
0.0
  0
MTEXT
  5
161
330
155
100
AcDbEntity
  8
EBENE_1
 62
     0
100
AcDbMText
 10
1.190625
 20
4.0927900738
 30
0.0
 40
3.175
 41
0.0
 71
     1
 72
     1
  1

  7
SLDTEXTSTYLE0
 73
     1
 44
1.0
  0
MTEXT
  5
162
330
155
100
AcDbEntity
  8
EBENE_1
 62
     0
100
AcDbMText
 10
3.2925925916
 20
9.0316784373
 30
0.0
 40
3.175
 41
0.0
 71
     1
 72
     1
  1
5,00
  7
SLDTEXTSTYLE0
 73
     1
 44
1.0
  0
MTEXT
  5
163
330
155
100
AcDbEntity
  8
EBENE_1
 62
     0
100
AcDbMText
 10
3.8805556251
 20
4.0927898409
 30
0.0
 40
3.175
 41
0.0
 71
     1
 72
     1
  1
127
  7
SLDTEXTSTYLE0
 73
     1
 44
1.0
  0
MTEXT
  5
164
330
155
100
AcDbEntity
  8
EBENE_1
 62
     0
100
AcDbMText
 10
14.8313658863
 20
4.0927900738
 30
0.0
 40
3.175
 41
0.0
 71
     1
 72
     1
  1

  7
SLDTEXTSTYLE0
 73
     1
 44
1.0
  0
ENDBLK
  5
157
330
155
100
AcDbEntity
  8
0
100
AcDbBlockEnd
  0
BLOCK
  5
167
330
166
100
AcDbEntity
  8
0
100
AcDbBlockBegin
  2
SW_NOTE_0
 70
     0
 10
0.0
 20
0.0
 30
0.0
  3
SW_NOTE_0
  1

  0
MTEXT
  5
169
330
166
100
AcDbEntity
  8
EBENE_1
 62
     0
100
AcDbMText
 10
6.7138020833
 20
4.7749217527
 30
0.0
 40
3.7041666667
 41
0.0
 71
     2
 72
     1
  1
(Inch)
  7
SLDTEXTSTYLE0
 73
     1
 44
1.0
  0
MTEXT
  5
16A
330
166
100
AcDbEntity
  8
EBENE_1
 62
     0
100
AcDbMText
 10
6.7309508326
 20
-1.1639672404
 30
0.0
 40
3.7041666667
 41
0.0
 71
     2
 72
     1
  1
mm
  7
SLDTEXTSTYLE0
 73
     1
 44
1.0
  0
ENDBLK
  5
168
330
166
100
AcDbEntity
  8
0
100
AcDbBlockEnd
  0
BLOCK
  5
172
330
171
100
AcDbEntity
  8
0
100
AcDbBlockBegin
  2
SW_NOTE_1
 70
     0
 10
0.0
 20
0.0
 30
0.0
  3
SW_NOTE_1
  1

  0
MTEXT
  5
174
330
171
100
AcDbEntity
  8
0
  6
Continuous
 62
     0
370
     0
100
AcDbMText
 10
19.893359375
 20
4.0927900738
 30
0.0
 40
3.175
 41
0.0
 71
     2
 72
     1
  1
ABP-Beyerle GmbH
  7
SLDTEXTSTYLE0
 73
     1
 44
1.0
  0
MTEXT
  5
175
330
171
100
AcDbEntity
  8
0
  6
Continuous
 62
     0
370
     0
100
AcDbMText
 10
20.6558884293
 20
-0.1405432084
 30
0.0
 40
3.175
 41
0.0
 71
     2
 72
     1
  1
Im Schollengarten 24b, 76646 Bruchsal
  7
SLDTEXTSTYLE0
 73
     1
 44
1.0
  0
MTEXT
  5
176
330
171
100
AcDbEntity
  8
0
  6
Continuous
 62
     0
370
     0
100
AcDbMText
 10
20.7863491923
 20
-4.3738764906
 30
0.0
 40
3.175
 41
0.0
 71
     2
 72
     1
  1
Tel. +49 (0)7251-9127-0, Fax. +49 (0)7251-9127-29
  7
SLDTEXTSTYLE0
 73
     1
 44
1.0
  0
MTEXT
  5
177
330
171
100
AcDbEntity
  8
0
  6
Continuous
 62
     0
370
     0
100
AcDbMText
 10
20.8392552227
 20
-8.6072097727
 30
0.0
 40
3.175
 41
0.0
 71
     2
 72
     1
  1
info@abp-beyerle.de, www.abp-beyerle.de
  7
SLDTEXTSTYLE0
 73
     1
 44
1.0
  0
ENDBLK
  5
173
330
171
100
AcDbEntity
  8
0
100
AcDbBlockEnd
  0
ENDSEC
  0
SECTION
  2
ENTITIES
  0
INSERT
  5
16D
330
1F
100
AcDbEntity
  8
EBENE_1
100
AcDbBlockReference
  2
Block1
 10
19.561342692
 20
-6.9223244521
 30
0.0
  0
MTEXT
  5
16F
330
1F
100
AcDbEntity
  8
0
  6
Continuous
 62
     7
370
     0
100
AcDbMText
 10
402.5
 20
14.7189135832
 30
0.0
 40
6.35
 41
0.0
 71
     1
 72
     1
  1
1:1
  7
SLDTEXTSTYLE1
 73
     1
 44
1.0
  0
MTEXT
  5
170
330
1F
100
AcDbEntity
  8
0
  6
Continuous
 62
     7
370
     0
100
AcDbMText
 10
168.4090458961
 20
14.7189131175
 30
0.0
 40
6.35
 41
0.0
 71
     1
 72
     1
  1
USU56-2100DB
  7
SLDTEXTSTYLE1
 73
     1
 44
1.0
  0
INSERT
  5
178
330
1F
100
AcDbEntity
  8
0
  6
Continuous
 62
     7
370
     0
100
AcDbBlockReference
  2
SW_NOTE_1
 10
35.4202146835
 20
20.1681939512
 30
0.0
  0
LINE
  5
179
330
1F
100
AcDbEntity
  8
0
  6
Continuous
 62
     7
370
    15
100
AcDbLine
 10
1436.5271265347
 20
2157.8320245269
 30
0.0
 11
1376.1396343548
 21
2157.8320245269
 31
0.0
  0
LINE
  5
17A
330
1F
100
AcDbEntity
  8
0
  6
Continuous
 62
     7
370
    15
100
AcDbLine
 10
1344.9145490963
 20
2157.8320245269
 30
0.0
 11
202.0270759899
 21
2157.8320245269
 31
0.0
  0
LINE
  5
17B
330
1F
100
AcDbEntity
  8
0
  6
Continuous
 62
     7
370
    15
100
AcDbLine
 10
172.0271046002
 20
2157.8320245269
 30
0.0
 11
-548.9729018222
 21
2157.8320245269
 31
0.0
  0
LINE
  5
17C
330
1F
100
AcDbEntity
  8
0
  6
Continuous
 62
     7
370
    15
100
AcDbLine
 10
-578.9729011517
 20
2157.8320245269
 30
0.0
 11
-583.8604075175
 21
2157.8320245269
 31
0.0
  0
LINE
  5
17D
330
1F
100
AcDbEntity
  8
0
  6
Continuous
 62
     7
370
    15
100
AcDbLine
 10
-615.0853996437
 20
2157.8320245269
 30
0.0
 11
-663.4728973072
 21
2157.8320245269
 31
0.0
  0
LINE
  5
17E
330
1F
100
AcDbEntity
  8
0
  6
Continuous
 62
     7
370
    15
100
AcDbLine
 10
-663.4728973072
 20
2132.8320241544
 30
0.0
 11
-615.0853996437
 21
2132.8320241544
 31
0.0
  0
LINE
  5
17F
330
1F
100
AcDbEntity
  8
0
  6
Continuous
 62
     7
370
    15
100
AcDbLine
 10
-583.8604075175
 20
2132.8320241544
 30
0.0
 11
-578.9729011517
 21
2132.8320241544
 31
0.0
  0
LINE
  5
180
330
1F
100
AcDbEntity
  8
0
  6
Continuous
 62
     7
370
    15
100
AcDbLine
 10
-548.9729018222
 20
2132.8320241544
 30
0.0
 11
172.0271046002
 21
2132.8320241544
 31
0.0
  0
LINE
  5
181
330
1F
100
AcDbEntity
  8
0
  6
Continuous
 62
     7
370
    15
100
AcDbLine
 10
202.0270759899
 20
2132.8320241544
 30
0.0
 11
1344.9145490963
 21
2132.8320241544
 31
0.0
  0
LINE
  5
182
330
1F
100
AcDbEntity
  8
0
  6
Continuous
 62
     7
370
    15
100
AcDbLine
 10
1376.1396343548
 20
2132.8320241544
 30
0.0
 11
1436.5271265347
 21
2132.8320241544
 31
0.0
  0
LINE
  5
183
330
1F
100
AcDbEntity
  8
0
  6
Continuous
 62
     7
370
    15
100
AcDbLine
 10
250.1318390209
 20
60.3319861937
 30
0.0
 11
250.0271136601
 21
54.331944232
 31
0.0
  0
LINE
  5
184
330
1F
100
AcDbEntity
  8
0
  6
Continuous
 62
     7
370
    15
100
AcDbLine
 10
278.0271107991
 20
54.331944232
 30
0.0
 11
277.9223854382
 21
60.3319861937
 31
0.0
  0
LINE
  5
185
330
1F
100
AcDbEntity
  8
0
  6
Continuous
 62
     7
370
    15
100
AcDbLine
 10
1436.5271265347
 20
2145.3320243406
 30
0.0
 11
1436.5271265347
 21
2157.8320245269
 31
0.0
  0
LINE
  5
186
330
1F
100
AcDbEntity
  8
0
  6
Continuous
 62
     7
370
    15
100
AcDbLine
 10
1436.5271265347
 20
2132.8320241544
 30
0.0
 11
1436.5271265347
 21
2145.3320243406
 31
0.0
  0
LINE
  5
187
330
1F
100
AcDbEntity
  8
0
  6
Continuous
 62
     7
370
    15
100
AcDbLine
 10
-663.4728973072
 20
2145.3320243406
 30
0.0
 11
-663.4728973072
 21
2157.8320245269
 31
0.0
  0
LINE
  5
188
330
1F
100
AcDbEntity
  8
0
  6
Continuous
 62
     7
370
    15
100
AcDbLine
 10
-663.4728973072
 20
2132.8320241544
 30
0.0
 11
-663.4728973072
 21
2145.3320243406
 31
0.0
  0
SPLINE
  5
189
330
1F
100
AcDbEntity
  8
0
  6
Continuous
 62
     7
370
    15
100
AcDbSpline
210
0.0
220
0.0
230
1.0
 70
    11
 71
     3
 72
    28
 73
    24
 74
     0
 42
0.000000001
 43
0.00000001
 40
0.0
 40
0.0
 40
0.0
 40
0.0
 40
0.0475553488591534
 40
0.0949656620366264
 40
0.1460696750894269
 40
0.2034579990806964
 40
0.2467844369035551
 40
0.2901855362763176
 40
0.3330343784471019
 40
0.3834830280389039
 40
0.4410925893996452
 40
0.4950488599171696
 40
0.5415909544449481
 40
0.5869405056711838
 40
0.6370239441451664
 40
0.6937078255810639
 40
0.738134591787255
 40
0.7826957759786999
 40
0.8249698297618874
 40
0.8737311429806354
 40
0.9306924824476234
 40
0.986018790364447
 40
1.0
 40
1.0
 40
1.0
 40
1.0
 10
1314.07713244746
 20
2145.33202434063
 30
0.0
 10
1314.007115100315
 20
2144.559232687505
 30
0.0
 10
1313.867293946959
 20
2143.016006263643
 30
0.0
 10
1312.794561746113
 20
2140.930211803287
 30
0.0
 10
1311.140058637201
 20
2139.178993717192
 30
0.0
 10
1309.012014038168
 20
2138.065426183934
 30
0.0
 10
1306.686559572155
 20
2137.682927337762
 30
0.0
 10
1304.571815944736
 20
2137.94081167304
 30
0.0
 10
1302.576607000045
 20
2138.776611535046
 30
0.0
 10
1300.760603445435
 20
2140.247931335358
 30
0.0
 10
1299.390081405764
 20
2142.417561758737
 30
0.0
 10
1298.849756670135
 20
2144.96730150906
 30
0.0
 10
1299.138792828078
 20
2147.351240214272
 30
0.0
 10
1300.054157607341
 20
2149.428896303288
 30
0.0
 10
1301.594715305891
 20
2151.223660670238
 30
0.0
 10
1303.629077502946
 20
2152.442370254372
 30
0.0
 10
1305.937869736929
 20
2152.965140258507
 30
0.0
 10
1308.10149323023
 20
2152.816351302009
 30
0.0
 10
1310.131606387876
 20
2152.079276350476
 30
0.0
 10
1311.990775575344
 20
2150.731590725879
 30
0.0
 10
1313.466496771117
 20
2148.679950446895
 30
0.0
 10
1314.039406891859
 20
2146.679213513704
 30
0.0
 10
1314.070799670874
 20
2145.558169401113
 30
0.0
 10
1314.07713244746
 20
2145.33202434063
 30
0.0
  0
SPLINE
  5
18A
330
1F
100
AcDbEntity
  8
0
  6
Continuous
 62
     7
370
    15
100
AcDbSpline
210
0.0
220
0.0
230
1.0
 70
     8
 71
     3
 72
    21
 73
    17
 74
     0
 42
0.000000001
 43
0.00000001
 40
0.0
 40
0.0
 40
0.0
 40
0.0
 40
0.0339527425133092
 40
0.1041651965815978
 40
0.1744966876258818
 40
0.2439314627305813
 40
0.3256849797162346
 40
0.4190402741655095
 40
0.5064764223628929
 40
0.5818974286769363
 40
0.6553871611448313
 40
0.7365486152772238
 40
0.8284048575655473
 40
0.9003965216966457
 40
0.9726079304438202
 40
1.0
 40
1.0
 40
1.0
 40
1.0
 10
82.61429618189631
 20
2138.563704584837
 30
0.0
 10
82.33200676275021
 20
2138.400634183452
 30
0.0
 10
81.46595793542144
 20
2137.900342920966
 30
0.0
 10
79.67221539821878
 20
2137.706411396111
 30
0.0
 10
77.57560407895758
 20
2137.934626662024
 30
0.0
 10
75.57545478773453
 20
2138.778610404933
 30
0.0
 10
73.76099816259763
 20
2140.247241037298
 30
0.0
 10
72.3900310587735
 20
2142.417747605947
 30
0.0
 10
71.84990975199956
 20
2144.967283069341
 30
0.0
 10
72.13862544621475
 20
2147.351164060728
 30
0.0
 10
73.05437876147391
 20
2149.429308488326
 30
0.0
 10
74.59390940029553
 20
2151.221830540941
 30
0.0
 10
76.63246329857954
 20
2152.449396362895
 30
0.0
 10
78.928405153463
 20
2152.945161555198
 30
0.0
 10
80.7097238124077
 20
2152.90077084281
 30
0.0
 10
81.60983591213311
 20
2152.544340985154
 30
0.0
 10
81.85737679789362
 20
2152.446318791359
 30
0.0
  0
SPLINE
  5
18B
330
1F
100
AcDbEntity
  8
0
  6
Continuous
 62
     7
370
    15
100
AcDbSpline
210
0.0
220
0.0
230
1.0
 70
    11
 71
     3
 72
    28
 73
    24
 74
     0
 42
0.000000001
 43
0.00000001
 40
0.0
 40
0.0
 40
0.0
 40
0.0
 40
0.0475551017581376
 40
0.0949664478301107
 40
0.1460694109748524
 40
0.2034572620135033
 40
0.2467854039304266
 40
0.2901854595561361
 40
0.3330337828653862
 40
0.3834830941484244
 40
0.4410924202715051
 40
0.4950486988046596
 40
0.5415905724712584
 40
0.5869408337005582
 40
0.637024723295287
 40
0.6937086281078244
 40
0.7381340333147036
 40
0.7826955103207595
 40
0.8249696366383935
 40
0.8737310939239699
 40
0.9306923259971298
 40
0.9860188322291035
 40
0.9999999999999999
 40
0.9999999999999999
 40
0.9999999999999999
 40
0.9999999999999999
 10
-525.9229018624634
 20
2145.332024340629
 30
0.0
 10
-525.9928700329401
 20
2144.55922626045
 30
0.0
 10
-526.1325948650965
 20
2143.015966213654
 30
0.0
 10
-527.2055334416767
 20
2140.930267091936
 30
0.0
 10
-528.8598932617492
 20
2139.178972719558
 30
0.0
 10
-530.9879672601538
 20
2138.065410981482
 30
0.0
 10
-533.3134231629748
 20
2137.682931482627
 30
0.0
 10
-535.4281695613307
 20
2137.940810092456
 30
0.0
 10
-537.4233447765671
 20
2138.776631602882
 30
0.0
 10
-539.2393834100689
 20
2140.247907650562
 30
0.0
 10
-540.6098885472938
 20
2142.417573518514
 30
0.0
 10
-541.1501388207045
 20
2144.967288866253
 30
0.0
 10
-540.8613218054577
 20
2147.351268901202
 30
0.0
 10
-539.9457847535358
 20
2149.428884700369
 30
0.0
 10
-538.4052355197404
 20
2151.223655829241
 30
0.0
 10
-536.3708809206418
 20
2152.442355429101
 30
0.0
 10
-534.0621181854839
 20
2152.965145965853
 30
0.0
 10
-531.898508612626
 20
2152.816350961515
 30
0.0
 10
-529.8683940903015
 20
2152.079275280816
 30
0.0
 10
-528.0092054042866
 20
2150.731597328354
 30
0.0
 10
-526.533549829169
 20
2148.679939296969
 30
0.0
 10
-525.9604981460553
 20
2146.679220578676
 30
0.0
 10
-525.9292129113057
 20
2145.558169598786
 30
0.0
 10
-525.9229018624634
 20
2145.332024340629
 30
0.0
  0
SPLINE
  5
18C
330
1F
100
AcDbEntity
  8
0
  6
Continuous
 62
     7
370
    15
100
AcDbSpline
210
0.0
220
0.0
230
1.0
 70
    11
 71
     3
 72
    28
 73
    24
 74
     0
 42
0.000000001
 43
0.00000001
 40
0.0
 40
0.0
 40
0.0
 40
0.0
 40
0.0475550759492187
 40
0.0949665350032828
 40
0.1460690478602847
 40
0.2034574919272666
 40
0.2467864296438478
 40
0.2901851897049363
 40
0.3330341215299376
 40
0.383484690044734
 40
0.4410931225193984
 40
0.4950495059316227
 40
0.5415914089993301
 40
0.586942011350889
 40
0.637025554616302
 40
0.6937095546539805
 40
0.7381340438765774
 40
0.7826953213050357
 40
0.8249694635397892
 40
0.873730878783636
 40
0.9306923374329408
 40
0.9860187611110443
 40
1.0
 40
1.0
 40
1.0
 40
1.0
 10
701.0770971615106
 20
2145.332024340629
 30
0.0
 10
701.0071415358525
 20
2144.559225211294
 30
0.0
 10
700.867441551359
 20
2143.015960815188
 30
0.0
 10
699.7944800159064
 20
2140.930282250674
 30
0.0
 10
698.1401658840518
 20
2139.178951558449
 30
0.0
 10
696.0120552906563
 20
2138.065412616339
 30
0.0
 10
693.6866034568543
 20
2137.682930530568
 30
0.0
 10
691.5718584221637
 20
2137.940820597575
 30
0.0
 10
689.5766876186477
 20
2138.776644285287
 30
0.0
 10
687.7605517634909
 20
2140.247856358066
 30
0.0
 10
686.3901769366705
 20
2142.417606820155
 30
0.0
 10
685.8498953459107
 20
2144.967281400808
 30
0.0
 10
686.1386858742837
 20
2147.351281007272
 30
0.0
 10
687.0542856956414
 20
2149.4288651689
 30
0.0
 10
688.5947813360542
 20
2151.223668922619
 30
0.0
 10
690.6291354566894
 20
2152.44234207727
 30
0.0
 10
692.9378689162849
 20
2152.965150186295
 30
0.0
 10
695.1014591016977
 20
2152.816348127363
 30
0.0
 10
697.1315707479828
 20
2152.079277321296
 30
0.0
 10
698.9907404091351
 20
2150.731590397444
 30
0.0
 10
700.4664614508418
 20
2148.679950541046
 30
0.0
 10
701.0393716076235
 20
2146.679213509004
 30
0.0
 10
701.0707643852114
 20
2145.558169400324
 30
0.0
 10
701.0770971615106
 20
2145.332024340629
 30
0.0
  0
CIRCLE
  5
18D
330
1F
100
AcDbEntity
  8
0
  6
Continuous
 62
     7
370
    15
100
AcDbCircle
 10
693.1936979244
 20
2145.3320243406
 30
0.0
 40
6.450000000000011
  0
LINE
  5
18E
330
1F
100
AcDbEntity
  8
0
  6
Continuous
 62
     7
370
    15
100
AcDbLine
 10
695.9440643627
 20
2146.2088748474
 30
0.0
 11
693.809502824
 21
2148.1523277714
 31
0.0
  0
LINE
  5
18F
330
1F
100
AcDbEntity
  8
0
  6
Continuous
 62
     7
370
    15
100
AcDbLine
 10
693.809502824
 20
2148.1523277714
 30
0.0
 11
691.0591060955
 21
2147.2754773229
 31
0.0
  0
LINE
  5
190
330
1F
100
AcDbEntity
  8
0
  6
Continuous
 62
     7
370
    15
100
AcDbLine
 10
691.0591060955
 20
2147.2754773229
 30
0.0
 11
690.443390115
 21
2144.4551738339
 31
0.0
  0
LINE
  5
191
330
1F
100
AcDbEntity
  8
0
  6
Continuous
 62
     7
370
    15
100
AcDbLine
 10
692.5779516537
 20
2142.5117209098
 30
0.0
 11
695.3282291729
 21
2143.3885713584
 31
0.0
  0
LINE
  5
192
330
1F
100
AcDbEntity
  8
0
  6
Continuous
 62
     7
370
    15
100
AcDbLine
 10
695.3282291729
 20
2143.3885713584
 30
0.0
 11
695.9440643627
 21
2146.2088748474
 31
0.0
  0
LINE
  5
193
330
1F
100
AcDbEntity
  8
0
  6
Continuous
 62
     7
370
    15
100
AcDbLine
 10
690.443390115
 20
2144.4551738339
 30
0.0
 11
692.5779516537
 21
2142.5117209098
 31
0.0
  0
CIRCLE
  5
194
330
1F
100
AcDbEntity
  8
0
  6
Continuous
 62
     7
370
    15
100
AcDbCircle
 10
693.1936979244
 20
2145.3320243406
 30
0.0
 40
7.449999999999957
  0
CIRCLE
  5
195
330
1F
100
AcDbEntity
  8
0
  6
Continuous
 62
     7
370
    15
100
AcDbCircle
 10
-533.4729020755
 20
2145.3320243406
 30
0.0
 40
6.450000000000011
  0
LINE
  5
196
330
1F
100
AcDbEntity
  8
0
  6
Continuous
 62
     7
370
    15
100
AcDbLine
 10
-530.7225458596
 20
2146.2088748474
 30
0.0
 11
-532.8570988417
 21
2148.1523277714
 31
0.0
  0
LINE
  5
197
330
1F
100
AcDbEntity
  8
0
  6
Continuous
 62
     7
370
    15
100
AcDbLine
 10
-532.8570988417
 20
2148.1523277714
 30
0.0
 11
-535.6074549995
 21
2147.2754773229
 31
0.0
  0
LINE
  5
198
330
1F
100
AcDbEntity
  8
0
  6
Continuous
 62
     7
370
    15
100
AcDbLine
 10
-535.6074549995
 20
2147.2754773229
 30
0.0
 11
-536.2232582915
 21
2144.4551738339
 31
0.0
  0
LINE
  5
199
330
1F
100
AcDbEntity
  8
0
  6
Continuous
 62
     7
370
    15
100
AcDbLine
 10
-536.2232582915
 20
2144.4551738339
 30
0.0
 11
-534.0887053094
 21
2142.5117209098
 31
0.0
  0
LINE
  5
19A
330
1F
100
AcDbEntity
  8
0
  6
Continuous
 62
     7
370
    15
100
AcDbLine
 10
-534.0887053094
 20
2142.5117209098
 30
0.0
 11
-531.3383491516
 21
2143.3885713584
 31
0.0
  0
LINE
  5
19B
330
1F
100
AcDbEntity
  8
0
  6
Continuous
 62
     7
370
    15
100
AcDbLine
 10
-531.3383491516
 20
2143.3885713584
 30
0.0
 11
-530.7225458596
 21
2146.2088748474
 31
0.0
  0
CIRCLE
  5
19C
330
1F
100
AcDbEntity
  8
0
  6
Continuous
 62
     7
370
    15
100
AcDbCircle
 10
-533.4729020755
 20
2145.3320243406
 30
0.0
 40
7.449999999999957
  0
CIRCLE
  5
19D
330
1F
100
AcDbEntity
  8
0
  6
Continuous
 62
     7
370
    15
100
AcDbCircle
 10
79.8603979244
 20
2145.3320243406
 30
0.0
 40
6.449999999999942
  0
CIRCLE
  5
19E
330
1F
100
AcDbEntity
  8
0
  6
Continuous
 62
     7
370
    15
100
AcDbCircle
 10
79.8603979244
 20
2145.3320243406
 30
0.0
 40
7.45000000000004
  0
LINE
  5
19F
330
1F
100
AcDbEntity
  8
0
  6
Continuous
 62
     7
370
    15
100
AcDbLine
 10
82.6107795079
 20
2146.2088748474
 30
0.0
 11
80.4762179692
 21
2148.1523277714
 31
0.0
  0
LINE
  5
1A0
330
1F
100
AcDbEntity
  8
0
  6
Continuous
 62
     7
370
    15
100
AcDbLine
 10
80.4762179692
 20
2148.1523277714
 30
0.0
 11
77.7258212406
 21
2147.2754773229
 31
0.0
  0
LINE
  5
1A1
330
1F
100
AcDbEntity
  8
0
  6
Continuous
 62
     7
370
    15
100
AcDbLine
 10
77.7258212406
 20
2147.2754773229
 30
0.0
 11
77.1100456555
 21
2144.4551738339
 31
0.0
  0
LINE
  5
1A2
330
1F
100
AcDbEntity
  8
0
  6
Continuous
 62
     7
370
    15
100
AcDbLine
 10
77.1100456555
 20
2144.4551738339
 30
0.0
 11
79.2446071942
 21
2142.5117209098
 31
0.0
  0
LINE
  5
1A3
330
1F
100
AcDbEntity
  8
0
  6
Continuous
 62
     7
370
    15
100
AcDbLine
 10
79.2446071942
 20
2142.5117209098
 30
0.0
 11
81.994944318
 21
2143.3885713584
 31
0.0
  0
LINE
  5
1A4
330
1F
100
AcDbEntity
  8
0
  6
Continuous
 62
     7
370
    15
100
AcDbLine
 10
81.994944318
 20
2143.3885713584
 30
0.0
 11
82.6107795079
 21
2146.2088748474
 31
0.0
  0
CIRCLE
  5
1A5
330
1F
100
AcDbEntity
  8
0
  6
Continuous
 62
     7
370
    15
100
AcDbCircle
 10
1306.5269979245
 20
2145.3320243406
 30
0.0
 40
6.44999999999989
  0
CIRCLE
  5
1A6
330
1F
100
AcDbEntity
  8
0
  6
Continuous
 62
     7
370
    15
100
AcDbCircle
 10
1306.5269979245
 20
2145.3320243406
 30
0.0
 40
7.449999999999947
  0
LINE
  5
1A7
330
1F
100
AcDbEntity
  8
0
  6
Continuous
 62
     7
370
    15
100
AcDbLine
 10
1309.2774088223
 20
2146.2088748474
 30
0.0
 11
1307.1428472836
 21
2148.1523277714
 31
0.0
  0
LINE
  5
1A8
330
1F
100
AcDbEntity
  8
0
  6
Continuous
 62
     7
370
    15
100
AcDbLine
 10
1307.1428472836
 20
2148.1523277714
 30
0.0
 11
1304.3924505551
 21
2147.2754773229
 31
0.0
  0
LINE
  5
1A9
330
1F
100
AcDbEntity
  8
0
  6
Continuous
 62
     7
370
    15
100
AcDbLine
 10
1304.3924505551
 20
2147.2754773229
 30
0.0
 11
1303.7766153652
 21
2144.4551738339
 31
0.0
  0
LINE
  5
1AA
330
1F
100
AcDbEntity
  8
0
  6
Continuous
 62
     7
370
    15
100
AcDbLine
 10
1303.7766153652
 20
2144.4551738339
 30
0.0
 11
1305.9111769039
 21
2142.5117209098
 31
0.0
  0
LINE
  5
1AB
330
1F
100
AcDbEntity
  8
0
  6
Continuous
 62
     7
370
    15
100
AcDbLine
 10
1305.9111769039
 20
2142.5117209098
 30
0.0
 11
1308.6615736325
 21
2143.3885713584
 31
0.0
  0
LINE
  5
1AC
330
1F
100
AcDbEntity
  8
0
  6
Continuous
 62
     7
370
    15
100
AcDbLine
 10
1308.6615736325
 20
2143.3885713584
 30
0.0
 11
1309.2774088223
 21
2146.2088748474
 31
0.0
  0
LINE
  5
1AD
330
1F
100
AcDbEntity
  8
0
  6
Continuous
 62
     7
370
    15
100
AcDbLine
 10
286.5270907719
 20
2110.3320241916
 30
0.0
 11
-663.4728973072
 21
2110.3320241916
 31
0.0
  0
LINE
  5
1AE
330
1F
100
AcDbEntity
  8
0
  6
Continuous
 62
     7
370
    15
100
AcDbLine
 10
286.5270907719
 20
60.3319861937
 30
0.0
 11
286.5270907719
 21
2110.3320241916
 31
0.0
  0
LINE
  5
1AF
330
1F
100
AcDbEntity
  8
0
  6
Continuous
 62
     7
370
    15
100
AcDbLine
 10
-663.4728973072
 20
60.3319861937
 30
0.0
 11
286.5270907719
 21
60.3319861937
 31
0.0
  0
LINE
  5
1B0
330
1F
100
AcDbEntity
  8
0
  6
Continuous
 62
     7
370
    15
100
AcDbLine
 10
-663.4728973072
 20
2110.3320241916
 30
0.0
 11
-663.4728973072
 21
60.3319861937
 31
0.0
  0
CIRCLE
  5
1B1
330
1F
100
AcDbEntity
  8
0
  6
Continuous
 62
     7
370
    15
100
AcDbCircle
 10
187.0270979244
 20
2183.8320243406
 30
0.0
 40
12.33393612946676
  0
CIRCLE
  5
1B2
330
1F
100
AcDbEntity
  8
0
  6
Continuous
 62
     7
370
    15
100
AcDbCircle
 10
187.0270979244
 20
2183.8320243406
 30
0.0
 40
12.49999999999997
  0
CIRCLE
  5
1B3
330
1F
100
AcDbEntity
  8
0
  6
Continuous
 62
     7
370
    15
100
AcDbCircle
 10
-563.9729020755
 20
2183.8320243406
 30
0.0
 40
12.33393612946668
  0
CIRCLE
  5
1B4
330
1F
100
AcDbEntity
  8
0
  6
Continuous
 62
     7
370
    15
100
AcDbCircle
 10
-563.9729020755
 20
2183.8320243406
 30
0.0
 40
12.49999999999989
  0
ARC
  5
1B5
330
1F
100
AcDbEntity
  8
0
  6
Continuous
 62
     7
370
    15
100
AcDbCircle
 10
187.0270979244
 20
2183.8320243406
 30
0.0
 40
29.0000000000002
100
AcDbArc
 50
301.1473899215
 51
151.2090893295
  0
ARC
  5
1B6
330
1F
100
AcDbEntity
  8
0
  6
Continuous
 62
     7
370
    15
100
AcDbCircle
 10
187.0270979244
 20
2183.8320243406
 30
0.0
 40
29.0000000000002
100
AcDbArc
 50
151.2090893295
 51
238.8526100785
  0
ARC
  5
1B7
330
1F
100
AcDbEntity
  8
0
  6
Continuous
 62
     7
370
    15
100
AcDbCircle
 10
-563.9729020755
 20
2183.8320243406
 30
0.0
 40
29.00000000000013
100
AcDbArc
 50
301.1473899215
 51
151.2090893295
  0
ARC
  5
1B8
330
1F
100
AcDbEntity
  8
0
  6
Continuous
 62
     7
370
    15
100
AcDbCircle
 10
-563.9729020755
 20
2183.8320243406
 30
0.0
 40
29.00000000000013
100
AcDbArc
 50
151.2090893295
 51
238.8526100785
  0
ARC
  5
1B9
330
1F
100
AcDbEntity
  8
0
  6
Continuous
 62
     7
370
    15
100
AcDbCircle
 10
187.0270979244
 20
2183.8320243406
 30
0.0
 40
15.00000000000003
100
AcDbArc
 50
0.0
 51
180.0
  0
LINE
  5
1BA
330
1F
100
AcDbEntity
  8
0
  6
Continuous
 62
     7
370
    15
100
AcDbLine
 10
202.0270759899
 20
2183.832024132
 30
0.0
 11
202.0270759899
 21
2110.3320241916
 31
0.0
  0
LINE
  5
1BB
330
1F
100
AcDbEntity
  8
0
  6
Continuous
 62
     7
370
    15
100
AcDbLine
 10
172.0271046002
 20
2110.3320241916
 30
0.0
 11
172.0271046002
 21
2183.832024132
 31
0.0
  0
ARC
  5
1BC
330
1F
100
AcDbEntity
  8
0
  6
Continuous
 62
     7
370
    15
100
AcDbCircle
 10
-563.9729020755
 20
2183.8320243406
 30
0.0
 40
15.00000000000011
100
AcDbArc
 50
0.0
 51
180.0
  0
LINE
  5
1BD
330
1F
100
AcDbEntity
  8
0
  6
Continuous
 62
     7
370
    15
100
AcDbLine
 10
-578.9729011517
 20
2110.3320241916
 30
0.0
 11
-578.9729011517
 21
2183.832024132
 31
0.0
  0
LINE
  5
1BE
330
1F
100
AcDbEntity
  8
0
  6
Continuous
 62
     7
370
    15
100
AcDbLine
 10
-548.9729018222
 20
2183.832024132
 30
0.0
 11
-548.9729018222
 21
2110.3320241916
 31
0.0
  0
LINE
  5
1BF
330
1F
100
AcDbEntity
  8
0
  6
Continuous
 62
     7
370
    15
100
AcDbLine
 10
237.027102216
 20
54.331944232
 30
0.0
 11
237.027102216
 21
50.3319957304
 31
0.0
  0
LINE
  5
1C0
330
1F
100
AcDbEntity
  8
0
  6
Continuous
 62
     7
370
    15
100
AcDbLine
 10
301.5270764668
 20
54.331944232
 30
0.0
 11
301.5270764668
 21
50.3319957304
 31
0.0
  0
LINE
  5
1C1
330
1F
100
AcDbEntity
  8
0
  6
Continuous
 62
     7
370
    15
100
AcDbLine
 10
237.027102216
 20
50.3319957304
 30
0.0
 11
301.5270764668
 21
50.3319957304
 31
0.0
  0
LINE
  5
1C2
330
1F
100
AcDbEntity
  8
0
  6
Continuous
 62
     7
370
    15
100
AcDbLine
 10
237.027102216
 20
54.331944232
 30
0.0
 11
301.5270764668
 21
54.331944232
 31
0.0
  0
SPLINE
  5
1C3
330
1F
100
AcDbEntity
  8
0
  6
Continuous
 62
     7
370
    15
100
AcDbSpline
210
0.0
220
0.0
230
1.0
 70
     8
 71
     3
 72
     9
 73
     5
 74
     0
 42
0.000000001
 43
0.00000001
 40
0.0
 40
0.0
 40
0.0
 40
0.0
 40
0.4999836423843163
 40
1.0
 40
1.0
 40
1.0
 40
1.0
 10
1357.86055873225
 20
2144.226257131546
 30
0.0
 10
1358.242342661846
 20
2143.933512881079
 30
0.0
 10
1359.005935502153
 20
2143.348005225128
 30
0.0
 10
1359.769572606228
 20
2142.76255526423
 30
0.0
 10
1360.151403649548
 20
2142.469820707217
 30
0.0
  0
SPLINE
  5
1C4
330
1F
100
AcDbEntity
  8
0
  6
Continuous
 62
     7
370
    15
100
AcDbSpline
210
0.0
220
0.0
230
1.0
 70
     8
 71
     3
 72
    14
 73
    10
 74
     0
 42
0.000000001
 43
0.00000001
 40
0.0
 40
0.0
 40
0.0
 40
0.0
 40
0.171976661798552
 40
0.3436826887241728
 40
0.5228301653349209
 40
0.723740862464872
 40
0.9513713602094186
 40
0.991236720914192
 40
1.0
 40
1.0
 40
1.0
 40
1.0
 10
1360.151403649548
 20
2142.469820707217
 30
0.0
 10
1360.151151529876
 20
2142.467784058068
 30
0.0
 10
1360.150647687283
 20
2142.463713964788
 30
0.0
 10
1360.146509676746
 20
2142.432344696699
 30
0.0
 10
1360.140232430865
 20
2142.385221350535
 30
0.0
 10
1360.132147113935
 20
2142.321061120701
 30
0.0
 10
1360.124464516199
 20
2142.266832663762
 30
0.0
 10
1360.120752173916
 20
2142.234945810391
 30
0.0
 10
1360.119855556354
 20
2142.229376418614
 30
0.0
 10
1360.119693978527
 20
2142.22837276861
 30
0.0
  0
SPLINE
  5
1C5
330
1F
100
AcDbEntity
  8
0
  6
Continuous
 62
     7
370
    15
100
AcDbSpline
210
0.0
220
0.0
230
1.0
 70
     8
 71
     3
 72
     9
 73
     5
 74
     0
 42
0.000000001
 43
0.00000001
 40
0.0
 40
0.0
 40
0.0
 40
0.0
 40
0.4999987052023287
 40
1.0
 40
1.0
 40
1.0
 40
1.0
 10
1360.119693978527
 20
2142.22837276861
 30
0.0
 10
1359.705381557147
 20
2142.545415272315
 30
0.0
 10
1358.876754568577
 20
2143.179501921751
 30
0.0
 10
1358.049326105672
 20
2143.815151753417
 30
0.0
 10
1357.635610802868
 20
2144.132977492287
 30
0.0
  0
SPLINE
  5
1C6
330
1F
100
AcDbEntity
  8
0
  6
Continuous
 62
     7
370
    15
100
AcDbSpline
210
0.0
220
0.0
230
1.0
 70
     8
 71
     3
 72
    14
 73
    10
 74
     0
 42
0.000000001
 43
0.00000001
 40
0.0
 40
0.0
 40
0.0
 40
0.0
 40
0.0085590803229252
 40
0.0485354420774714
 40
0.2762365000531743
 40
0.4771494166251077
 40
0.6563198111918177
 40
0.8280299250974215
 40
0.9999999999999999
 40
0.9999999999999999
 40
0.9999999999999999
 40
0.9999999999999999
 10
1357.635610802868
 20
2144.132977492287
 30
0.0
 10
1357.636524321396
 20
2144.133366183678
 30
0.0
 10
1357.641704553841
 20
2144.135570311663
 30
0.0
 10
1357.671417776341
 20
2144.147699491587
 30
0.0
 10
1357.721974006511
 20
2144.168828534006
 30
0.0
 10
1357.781731055952
 20
2144.193565033004
 30
0.0
 10
1357.8256532834
 20
2144.21178009738
 30
0.0
 10
1357.854890908973
 20
2144.223897235271
 30
0.0
 10
1357.858668505361
 20
2144.225470102881
 30
0.0
 10
1357.86055873225
 20
2144.226257131546
 30
0.0
  0
CIRCLE
  5
1C7
330
1F
100
AcDbEntity
  8
0
  6
Continuous
 62
     7
370
    15
100
AcDbCircle
 10
1360.5270979244
 20
2145.3320243406
 30
0.0
 40
14.83208158365325
  0
SPLINE
  5
1C8
330
1F
100
AcDbEntity
  8
0
  6
Continuous
 62
     7
370
    15
100
AcDbSpline
210
0.0
220
0.0
230
1.0
 70
     8
 71
     3
 72
     9
 73
     5
 74
     0
 42
0.000000001
 43
0.00000001
 40
0.0
 40
0.0
 40
0.0
 40
0.0
 40
0.4999986045185357
 40
1.0
 40
1.0
 40
1.0
 40
1.0
 10
1357.635610802868
 20
2144.132977492287
 30
0.0
 10
1357.702993949468
 20
2144.650317766376
 30
0.0
 10
1357.837760618795
 20
2145.685001202318
 30
0.0
 10
1357.97455270918
 20
2146.719418814636
 30
0.0
 10
1358.042948945263
 20
2147.236629064306
 30
0.0
  0
SPLINE
  5
1C9
330
1F
100
AcDbEntity
  8
0
  6
Continuous
 62
     7
370
    15
100
AcDbSpline
210
0.0
220
0.0
230
1.0
 70
     8
 71
     3
 72
     9
 73
     5
 74
     0
 42
0.000000001
 43
0.00000001
 40
0.0
 40
0.0
 40
0.0
 40
0.0
 40
0.5000061349031862
 40
1.0
 40
1.0
 40
1.0
 40
1.0
 10
1363.011234505871
 20
2143.427419616952
 30
0.0
 10
1362.52949285667
 20
2143.227123408012
 30
0.0
 10
1361.566021379877
 20
2142.826535905262
 30
0.0
 10
1360.601799168704
 20
2142.427758849855
 30
0.0
 10
1360.119693978527
 20
2142.22837276861
 30
0.0
  0
SPLINE
  5
1CA
330
1F
100
AcDbEntity
  8
0
  6
Continuous
 62
     7
370
    15
100
AcDbSpline
210
0.0
220
0.0
230
1.0
 70
     8
 71
     3
 72
     9
 73
     5
 74
     0
 42
0.000000001
 43
0.00000001
 40
0.0
 40
0.0
 40
0.0
 40
0.0
 40
0.4999986045185357
 40
1.0
 40
1.0
 40
1.0
 40
1.0
 10
1363.418572648266
 20
2146.531071188971
 30
0.0
 10
1363.351189501667
 20
2146.013730914882
 30
0.0
 10
1363.216422832338
 20
2144.979047478941
 30
0.0
 10
1363.079630741954
 20
2143.944629866622
 30
0.0
 10
1363.011234505871
 20
2143.427419616952
 30
0.0
  0
SPLINE
  5
1CB
330
1F
100
AcDbEntity
  8
0
  6
Continuous
 62
     7
370
    15
100
AcDbSpline
210
0.0
220
0.0
230
1.0
 70
     8
 71
     3
 72
     9
 73
     5
 74
     0
 42
0.000000001
 43
0.00000001
 40
0.0
 40
0.0
 40
0.0
 40
0.0
 40
0.4999987052023287
 40
1.0
 40
1.0
 40
1.0
 40
1.0
 10
1360.934489472607
 20
2148.435675912648
 30
0.0
 10
1361.348801893988
 20
2148.118633408944
 30
0.0
 10
1362.177428882557
 20
2147.484546759507
 30
0.0
 10
1363.004857345461
 20
2146.848896927841
 30
0.0
 10
1363.418572648266
 20
2146.531071188971
 30
0.0
  0
SPLINE
  5
1CC
330
1F
100
AcDbEntity
  8
0
  6
Continuous
 62
     7
370
    15
100
AcDbSpline
210
0.0
220
0.0
230
1.0
 70
     8
 71
     3
 72
     9
 73
     5
 74
     0
 42
0.000000001
 43
0.00000001
 40
0.0
 40
0.0
 40
0.0
 40
0.0
 40
0.5000061349031862
 40
1.0
 40
1.0
 40
1.0
 40
1.0
 10
1358.042948945263
 20
2147.236629064306
 30
0.0
 10
1358.524690594464
 20
2147.436925273247
 30
0.0
 10
1359.488162071257
 20
2147.837512775997
 30
0.0
 10
1360.45238428243
 20
2148.236289831403
 30
0.0
 10
1360.934489472607
 20
2148.435675912648
 30
0.0
  0
SPLINE
  5
1CD
330
1F
100
AcDbEntity
  8
0
  6
Continuous
 62
     7
370
    15
100
AcDbSpline
210
0.0
220
0.0
230
1.0
 70
     8
 71
     3
 72
     9
 73
     5
 74
     0
 42
0.000000001
 43
0.00000001
 40
0.0
 40
0.0
 40
0.0
 40
0.0
 40
0.5000026860849432
 40
1.0
 40
1.0
 40
1.0
 40
1.0
 10
1362.817996247509
 20
2143.575587916299
 30
0.0
 10
1362.880630627003
 20
2144.052620573834
 30
0.0
 10
1363.005898713032
 20
2145.00668076353
 30
0.0
 10
1363.13104960771
 20
2145.96075632947
 30
0.0
 10
1363.193624718884
 20
2146.437791549712
 30
0.0
  0
SPLINE
  5
1CE
330
1F
100
AcDbEntity
  8
0
  6
Continuous
 62
     7
370
    15
100
AcDbSpline
210
0.0
220
0.0
230
1.0
 70
     8
 71
     3
 72
    14
 73
    10
 74
     0
 42
0.000000001
 43
0.00000001
 40
0.0
 40
0.0
 40
0.0
 40
0.0
 40
0.1720418217727967
 40
0.343615266971966
 40
0.5228033847138912
 40
0.7237361751876038
 40
0.9514597568941771
 40
0.991440073030057
 40
1.0
 40
1.0
 40
1.0
 40
1.0
 10
1363.193624718884
 20
2146.437791549712
 30
0.0
 10
1363.195574580769
 20
2146.438576835078
 30
0.0
 10
1363.199468996125
 20
2146.440145267904
 30
0.0
 10
1363.228496470903
 20
2146.452276815238
 30
0.0
 10
1363.272466617364
 20
2146.470482669796
 30
0.0
 10
1363.332204653004
 20
2146.495220476907
 30
0.0
 10
1363.382765895275
 20
2146.516349174503
 30
0.0
 10
1363.412478894408
 20
2146.528478369793
 30
0.0
 10
1363.417659129306
 20
2146.530682497611
 30
0.0
 10
1363.418572648266
 20
2146.531071188971
 30
0.0
  0
SPLINE
  5
1CF
330
1F
100
AcDbEntity
  8
0
  6
Continuous
 62
     7
370
    15
100
AcDbSpline
210
0.0
220
0.0
230
1.0
 70
     8
 71
     3
 72
    14
 73
    10
 74
     0
 42
0.000000001
 43
0.00000001
 40
0.0
 40
0.0
 40
0.0
 40
0.0
 40
0.1719975622327977
 40
0.3436968366756006
 40
0.5228474039547947
 40
0.7237208845035793
 40
0.9515912634633773
 40
0.9913306378505051
 40
0.9999999999999999
 40
0.9999999999999999
 40
0.9999999999999999
 40
0.9999999999999999
 10
1362.817996247509
 20
2143.575587916299
 30
0.0
 10
1362.819635367418
 20
2143.574338563845
 30
0.0
 10
1362.822910764581
 20
2143.571842025631
 30
0.0
 10
1362.847988174504
 20
2143.552587533455
 30
0.0
 10
1362.8857278189
 20
2143.523681468056
 30
0.0
 10
1362.936998146188
 20
2143.484258051961
 30
0.0
 10
1362.980569411014
 20
2143.451051388739
 30
0.0
 10
1363.006003510538
 20
2143.43147734215
 30
0.0
 10
1363.010439991092
 20
2143.428035928463
 30
0.0
 10
1363.011234505871
 20
2143.427419616952
 30
0.0
  0
SPLINE
  5
1D0
330
1F
100
AcDbEntity
  8
0
  6
Continuous
 62
     7
370
    15
100
AcDbSpline
210
0.0
220
0.0
230
1.0
 70
     8
 71
     3
 72
     9
 73
     5
 74
     0
 42
0.000000001
 43
0.00000001
 40
0.0
 40
0.0
 40
0.0
 40
0.0
 40
0.4999836423843163
 40
1.0
 40
1.0
 40
1.0
 40
1.0
 10
1363.193624718884
 20
2146.437791549712
 30
0.0
 10
1362.811840789288
 20
2146.730535800179
 30
0.0
 10
1362.048247948981
 20
2147.316043456131
 30
0.0
 10
1361.284610844907
 20
2147.901493417028
 30
0.0
 10
1360.902779801586
 20
2148.194227974042
 30
0.0
  0
SPLINE
  5
1D1
330
1F
100
AcDbEntity
  8
0
  6
Continuous
 62
     7
370
    15
100
AcDbSpline
210
0.0
220
0.0
230
1.0
 70
     8
 71
     3
 72
    14
 73
    10
 74
     0
 42
0.000000001
 43
0.00000001
 40
0.0
 40
0.0
 40
0.0
 40
0.0
 40
0.0087633146777204
 40
0.0486288372949941
 40
0.2762163315651257
 40
0.4771677111990475
 40
0.656315915414296
 40
0.8280226397210929
 40
1.0
 40
1.0
 40
1.0
 40
1.0
 10
1360.934489472607
 20
2148.435675912648
 30
0.0
 10
1360.934327914998
 20
2148.434672260192
 30
0.0
 10
1360.933431409627
 20
2148.429102854803
 30
0.0
 10
1360.929709686374
 20
2148.397222281538
 30
0.0
 10
1360.922251856625
 20
2148.342967086652
 30
0.0
 10
1360.91390344354
 20
2148.278836261509
 30
0.0
 10
1360.90768538976
 20
2148.231702648181
 30
0.0
 10
1360.903532906261
 20
2148.200335045244
 30
0.0
 10
1360.903030968229
 20
2148.19626473284
 30
0.0
 10
1360.902779801586
 20
2148.194227974042
 30
0.0
  0
SPLINE
  5
1D2
330
1F
100
AcDbEntity
  8
0
  6
Continuous
 62
     7
370
    15
100
AcDbSpline
210
0.0
220
0.0
230
1.0
 70
     8
 71
     3
 72
    14
 73
    10
 74
     0
 42
0.000000001
 43
0.00000001
 40
0.0
 40
0.0
 40
0.0
 40
0.0
 40
0.0086693363689195
 40
0.0486798989831043
 40
0.2762812676663773
 40
0.4771541508662678
 40
0.6563041853952308
 40
0.8280029492461357
 40
1.0
 40
1.0
 40
1.0
 40
1.0
 10
1358.042948945263
 20
2147.236629064306
 30
0.0
 10
1358.043743134987
 20
2147.236012328955
 30
0.0
 10
1358.048202654592
 20
2147.232549247893
 30
0.0
 10
1358.073801813627
 20
2147.213189395432
 30
0.0
 10
1358.117149003533
 20
2147.179696860456
 30
0.0
 10
1358.168468801021
 20
2147.140384277663
 30
0.0
 10
1358.206192091606
 20
2147.111457020566
 30
0.0
 10
1358.231273470256
 20
2147.092207671168
 30
0.0
 10
1358.234548345102
 20
2147.089710456124
 30
0.0
 10
1358.236187203625
 20
2147.088460764959
 30
0.0
  0
SPLINE
  5
1D3
330
1F
100
AcDbEntity
  8
0
  6
Continuous
 62
     7
370
    15
100
AcDbSpline
210
0.0
220
0.0
230
1.0
 70
     8
 71
     3
 72
     9
 73
     5
 74
     0
 42
0.000000001
 43
0.00000001
 40
0.0
 40
0.0
 40
0.0
 40
0.0
 40
0.5000026860849432
 40
1.0
 40
1.0
 40
1.0
 40
1.0
 10
1358.236187203625
 20
2147.088460764959
 30
0.0
 10
1358.17355282413
 20
2146.611428107424
 30
0.0
 10
1358.048284738102
 20
2145.657367917729
 30
0.0
 10
1357.923133843423
 20
2144.703292351789
 30
0.0
 10
1357.86055873225
 20
2144.226257131546
 30
0.0
  0
SPLINE
  5
1D4
330
1F
100
AcDbEntity
  8
0
  6
Continuous
 62
     7
370
    15
100
AcDbSpline
210
0.0
220
0.0
230
1.0
 70
     8
 71
     3
 72
     9
 73
     5
 74
     0
 42
0.000000001
 43
0.00000001
 40
0.0
 40
0.0
 40
0.0
 40
0.0
 40
0.5000190682612501
 40
1.0
 40
1.0
 40
1.0
 40
1.0
 10
1360.902779801586
 20
2148.194227974042
 30
0.0
 10
1360.45832637404
 20
2148.009936953639
 30
0.0
 10
1359.56945341747
 20
2147.641368968735
 30
0.0
 10
1358.680597975621
 20
2147.272758813715
 30
0.0
 10
1358.236187203625
 20
2147.088460764959
 30
0.0
  0
SPLINE
  5
1D5
330
1F
100
AcDbEntity
  8
0
  6
Continuous
 62
     7
370
    15
100
AcDbSpline
210
0.0
220
0.0
230
1.0
 70
     8
 71
     3
 72
     9
 73
     5
 74
     0
 42
0.000000001
 43
0.00000001
 40
0.0
 40
0.0
 40
0.0
 40
0.0
 40
0.5000190682612501
 40
1.0
 40
1.0
 40
1.0
 40
1.0
 10
1360.151403649548
 20
2142.469820707217
 30
0.0
 10
1360.595857077094
 20
2142.654111727619
 30
0.0
 10
1361.484730033664
 20
2143.022679712524
 30
0.0
 10
1362.373585475512
 20
2143.391289867544
 30
0.0
 10
1362.817996247509
 20
2143.575587916299
 30
0.0
  0
CIRCLE
  5
1D6
330
1F
100
AcDbEntity
  8
0
  6
Continuous
 62
     7
370
    15
100
AcDbCircle
 10
1360.5270979244
 20
2145.3320243406
 30
0.0
 40
15.00000000000019
  0
CIRCLE
  5
1D7
330
1F
100
AcDbEntity
  8
0
  6
Continuous
 62
     7
370
    15
100
AcDbCircle
 10
-599.4729020755
 20
2145.3320243406
 30
0.0
 40
14.83208158365307
  0
SPLINE
  5
1D8
330
1F
100
AcDbEntity
  8
0
  6
Continuous
 62
     7
370
    15
100
AcDbSpline
210
0.0
220
0.0
230
1.0
 70
     8
 71
     3
 72
     9
 73
     5
 74
     0
 42
0.000000001
 43
0.00000001
 40
0.0
 40
0.0
 40
0.0
 40
0.0
 40
0.5000001512645639
 40
1.0
 40
1.0
 40
1.0
 40
1.0
 10
-602.3644198935241
 20
2144.132977492287
 30
0.0
 10
-602.2970157429952
 20
2144.65031696642
 30
0.0
 10
-602.1622074827211
 20
2145.684995601664
 30
0.0
 10
-602.0254470470943
 20
2146.719418014406
 30
0.0
 10
-601.9570668499679
 20
2147.236629064306
 30
0.0
  0
SPLINE
  5
1D9
330
1F
100
AcDbEntity
  8
0
  6
Continuous
 62
     7
370
    15
100
AcDbSpline
210
0.0
220
0.0
230
1.0
 70
     8
 71
     3
 72
     9
 73
     5
 74
     0
 42
0.000000001
 43
0.00000001
 40
0.0
 40
0.0
 40
0.0
 40
0.0
 40
0.499999654431701
 40
0.9999999999999999
 40
0.9999999999999999
 40
0.9999999999999999
 40
0.9999999999999999
 10
-599.8802547614783
 20
2142.22837276861
 30
0.0
 10
-600.2945823122914
 20
2142.545414970502
 30
0.0
 10
-601.1232379866318
 20
2143.179499812527
 30
0.0
 10
-601.9506924005987
 20
2143.815151452593
 30
0.0
 10
-602.3644198935241
 20
2144.132977492287
 30
0.0
  0
SPLINE
  5
1DA
330
1F
100
AcDbEntity
  8
0
  6
Continuous
 62
     7
370
    15
100
AcDbSpline
210
0.0
220
0.0
230
1.0
 70
     8
 71
     3
 72
     9
 73
     5
 74
     0
 42
0.000000001
 43
0.00000001
 40
0.0
 40
0.0
 40
0.0
 40
0.0
 40
0.5000006406973072
 40
1.0
 40
1.0
 40
1.0
 40
1.0
 10
-596.9887365858764
 20
2143.427419616952
 30
0.0
 10
-597.4704678457239
 20
2143.227122313356
 30
0.0
 10
-598.4339291308445
 20
2142.826528219483
 30
0.0
 10
-599.3981466297815
 20
2142.427757748574
 30
0.0
 10
-599.8802547614783
 20
2142.22837276861
 30
0.0
  0
SPLINE
  5
1DB
330
1F
100
AcDbEntity
  8
0
  6
Continuous
 62
     7
370
    15
100
AcDbSpline
210
0.0
220
0.0
230
1.0
 70
     8
 71
     3
 72
     9
 73
     5
 74
     0
 42
0.000000001
 43
0.00000001
 40
0.0
 40
0.0
 40
0.0
 40
0.0
 40
0.5000001512645639
 40
1.0
 40
1.0
 40
1.0
 40
1.0
 10
-596.5813835423202
 20
2146.531071188971
 30
0.0
 10
-596.648787692849
 20
2146.013731714839
 30
0.0
 10
-596.7835959531232
 20
2144.979053079595
 30
0.0
 10
-596.92035638875
 20
2143.944630666852
 30
0.0
 10
-596.9887365858764
 20
2143.427419616952
 30
0.0
  0
SPLINE
  5
1DC
330
1F
100
AcDbEntity
  8
0
  6
Continuous
 62
     7
370
    15
100
AcDbSpline
210
0.0
220
0.0
230
1.0
 70
     8
 71
     3
 72
     9
 73
     5
 74
     0
 42
0.000000001
 43
0.00000001
 40
0.0
 40
0.0
 40
0.0
 40
0.0
 40
0.499999654431701
 40
0.9999999999999999
 40
0.9999999999999999
 40
0.9999999999999999
 40
0.9999999999999999
 10
-599.0655486743659
 20
2148.435675912648
 30
0.0
 10
-598.6512211235529
 20
2148.118633710756
 30
0.0
 10
-597.8225654492124
 20
2147.484548868732
 30
0.0
 10
-596.9951110352456
 20
2146.848897228665
 30
0.0
 10
-596.5813835423202
 20
2146.531071188971
 30
0.0
  0
SPLINE
  5
1DD
330
1F
100
AcDbEntity
  8
0
  6
Continuous
 62
     7
370
    15
100
AcDbSpline
210
0.0
220
0.0
230
1.0
 70
     8
 71
     3
 72
     9
 73
     5
 74
     0
 42
0.000000001
 43
0.00000001
 40
0.0
 40
0.0
 40
0.0
 40
0.0
 40
0.5000006406973072
 40
1.0
 40
1.0
 40
1.0
 40
1.0
 10
-601.9570668499679
 20
2147.236629064306
 30
0.0
 10
-601.4753355901204
 20
2147.436926367902
 30
0.0
 10
-600.5118743049998
 20
2147.837520461775
 30
0.0
 10
-599.5476568060627
 20
2148.236290932685
 30
0.0
 10
-599.0655486743659
 20
2148.435675912648
 30
0.0
  0
SPLINE
  5
1DE
330
1F
100
AcDbEntity
  8
0
  6
Continuous
 62
     7
370
    15
100
AcDbSpline
210
0.0
220
0.0
230
1.0
 70
     8
 71
     3
 72
     9
 73
     5
 74
     0
 42
0.000000001
 43
0.00000001
 40
0.0
 40
0.0
 40
0.0
 40
0.0
 40
0.5000000245314602
 40
1.0
 40
1.0
 40
1.0
 40
1.0
 10
-602.1394719641418
 20
2144.226257131546
 30
0.0
 10
-601.7576545531847
 20
2143.933517676465
 30
0.0
 10
-600.9940197687365
 20
2143.348038795028
 30
0.0
 10
-600.2303848718898
 20
2142.762560060245
 30
0.0
 10
-599.8485674421996
 20
2142.469820707217
 30
0.0
  0
SPLINE
  5
1DF
330
1F
100
AcDbEntity
  8
0
  6
Continuous
 62
     7
370
    15
100
AcDbSpline
210
0.0
220
0.0
230
1.0
 70
     8
 71
     3
 72
    14
 73
    10
 74
     0
 42
0.000000001
 43
0.00000001
 40
0.0
 40
0.0
 40
0.0
 40
0.0
 40
0.1719818508327114
 40
0.3436884514612368
 40
0.5228332550687177
 40
0.7237801531692101
 40
0.9513957350005205
 40
0.9912701611157818
 40
0.9999999999999999
 40
0.9999999999999999
 40
0.9999999999999999
 40
0.9999999999999999
 10
-599.8485674421996
 20
2142.469820707217
 30
0.0
 10
-599.8488319638276
 20
2142.467783950931
 30
0.0
 10
-599.8493605837272
 20
2142.463713698108
 30
0.0
 10
-599.8534911729761
 20
2142.432347155553
 30
0.0
 10
-599.8596625037924
 20
2142.385209551849
 30
0.0
 10
-599.8680985928353
 20
2142.321091212641
 30
0.0
 10
-599.8752037325444
 20
2142.266781322952
 30
0.0
 10
-599.8793905798096
 20
2142.234966864229
 30
0.0
 10
-599.8801231789432
 20
2142.229376802657
 30
0.0
 10
-599.8802547614783
 20
2142.22837276861
 30
0.0
  0
SPLINE
  5
1E0
330
1F
100
AcDbEntity
  8
0
  6
Continuous
 62
     7
370
    15
100
AcDbSpline
210
0.0
220
0.0
230
1.0
 70
     8
 71
     3
 72
    14
 73
    10
 74
     0
 42
0.000000001
 43
0.00000001
 40
0.0
 40
0.0
 40
0.0
 40
0.0
 40
0.0087364293362316
 40
0.0485955450523425
 40
0.276225360484658
 40
0.4771620459753258
 40
0.656308927054721
 40
0.8280145639137725
 40
1.0
 40
1.0
 40
1.0
 40
1.0
 10
-602.3644198935241
 20
2144.132977492287
 30
0.0
 10
-602.3634836720721
 20
2144.133365351733
 30
0.0
 10
-602.3582760305978
 20
2144.135522782467
 30
0.0
 10
-602.3286389383222
 20
2144.147825669033
 30
0.0
 10
-602.2780389351115
 20
2144.168792563683
 30
0.0
 10
-602.2183048126258
 20
2144.193570723841
 30
0.0
 10
-602.1743892755278
 20
2144.211779246648
 30
0.0
 10
-602.1451688566289
 20
2144.223898033755
 30
0.0
 10
-602.1413719586568
 20
2144.225470338944
 30
0.0
 10
-602.1394719641418
 20
2144.226257131546
 30
0.0
  0
SPLINE
  5
1E1
330
1F
100
AcDbEntity
  8
0
  6
Continuous
 62
     7
370
    15
100
AcDbSpline
210
0.0
220
0.0
230
1.0
 70
    24
 71
     3
 72
     9
 73
     5
 74
     0
 42
0.000000001
 43
0.00000001
 40
0.0
 40
0.0
 40
0.0
 40
0.0
 40
0.5
 40
1.0
 40
1.0
 40
1.0
 40
1.0
 10
-597.1819897453994
 20
2143.575587916299
 30
0.0
 10
-597.1193800331165
 20
2144.052621855201
 30
0.0
 10
-596.9941606085509
 20
2145.006689733006
 30
0.0
 10
-596.8689411839854
 20
2145.96075761081
 30
0.0
 10
-596.8063314717025
 20
2146.437791549712
 30
0.0
  0
SPLINE
  5
1E2
330
1F
100
AcDbEntity
  8
0
  6
Continuous
 62
     7
370
    15
100
AcDbSpline
210
0.0
220
0.0
230
1.0
 70
     8
 71
     3
 72
    14
 73
    10
 74
     0
 42
0.000000001
 43
0.00000001
 40
0.0
 40
0.0
 40
0.0
 40
0.0
 40
0.1719854360862274
 40
0.343691072945279
 40
0.5228379540246741
 40
0.7237746395153418
 40
0.9514044549476575
 40
0.9912635706637682
 40
1.0
 40
1.0
 40
1.0
 40
1.0
 10
-596.8063314717025
 20
2146.437791549712
 30
0.0
 10
-596.8044314771874
 20
2146.438578342314
 30
0.0
 10
-596.8006345792154
 20
2146.440150647503
 30
0.0
 10
-596.7714141603165
 20
2146.452269434611
 30
0.0
 10
-596.7274986232185
 20
2146.470477957418
 30
0.0
 10
-596.6677645007328
 20
2146.495256117576
 30
0.0
 10
-596.617164497522
 20
2146.516223012226
 30
0.0
 10
-596.5875274052463
 20
2146.528525898791
 30
0.0
 10
-596.582319763772
 20
2146.530683329526
 30
0.0
 10
-596.5813835423202
 20
2146.531071188971
 30
0.0
  0
SPLINE
  5
1E3
330
1F
100
AcDbEntity
  8
0
  6
Continuous
 62
     7
370
    15
100
AcDbSpline
210
0.0
220
0.0
230
1.0
 70
     8
 71
     3
 72
    14
 73
    10
 74
     0
 42
0.000000001
 43
0.00000001
 40
0.0
 40
0.0
 40
0.0
 40
0.0
 40
0.1719800398274986
 40
0.3436871140597566
 40
0.5228285806790214
 40
0.7237833561243568
 40
0.9513906038995359
 40
0.9912634704018112
 40
1.0
 40
1.0
 40
1.0
 40
1.0
 10
-597.1819897453994
 20
2143.575587916299
 30
0.0
 10
-597.1803615584015
 20
2143.574337986126
 30
0.0
 10
-597.1771077686532
 20
2143.571840109661
 30
0.0
 10
-597.1519969958586
 20
2143.552591984476
 30
0.0
 10
-597.114273229395
 20
2143.523663917782
 30
0.0
 10
-597.0629465261317
 20
2143.484318227288
 30
0.0
 10
-597.0194777209896
 20
2143.450994981952
 30
0.0
 10
-596.9940180776194
 20
2143.431463557432
 30
0.0
 10
-596.9895412098907
 20
2143.428035702669
 30
0.0
 10
-596.9887365858764
 20
2143.427419616952
 30
0.0
  0
SPLINE
  5
1E4
330
1F
100
AcDbEntity
  8
0
  6
Continuous
 62
     7
370
    15
100
AcDbSpline
210
0.0
220
0.0
230
1.0
 70
     8
 71
     3
 72
     9
 73
     5
 74
     0
 42
0.000000001
 43
0.00000001
 40
0.0
 40
0.0
 40
0.0
 40
0.0
 40
0.5000000245314602
 40
1.0
 40
1.0
 40
1.0
 40
1.0
 10
-596.8063314717025
 20
2146.437791549712
 30
0.0
 10
-597.1881488826596
 20
2146.730531004794
 30
0.0
 10
-597.9517836671077
 20
2147.31600988623
 30
0.0
 10
-598.7154185639545
 20
2147.901488621013
 30
0.0
 10
-599.0972359936446
 20
2148.194227974042
 30
0.0
  0
SPLINE
  5
1E5
330
1F
100
AcDbEntity
  8
0
  6
Continuous
 62
     7
370
    15
100
AcDbSpline
210
0.0
220
0.0
230
1.0
 70
     8
 71
     3
 72
    14
 73
    10
 74
     0
 42
0.000000001
 43
0.00000001
 40
0.0
 40
0.0
 40
0.0
 40
0.0
 40
0.0087298367304232
 40
0.0486042530080074
 40
0.2762225271845859
 40
0.4771668739228487
 40
0.656311633332359
 40
0.8280181915980408
 40
1.0
 40
1.0
 40
1.0
 40
1.0
 10
-599.0655486743659
 20
2148.435675912648
 30
0.0
 10
-599.0656802581567
 20
2148.434671878754
 30
0.0
 10
-599.0664128642809
 20
2148.429081818033
 30
0.0
 10
-599.0705991293444
 20
2148.39726696691
 30
0.0
 10
-599.0777183136056
 20
2148.342958751636
 30
0.0
 10
-599.0861379587838
 20
2148.278838569213
 30
0.0
 10
-599.0923129886925
 20
2148.231701609499
 30
0.0
 10
-599.0964426735443
 20
2148.200334962535
 30
0.0
 10
-599.0969714124606
 20
2148.196264723452
 30
0.0
 10
-599.0972359936446
 20
2148.194227974042
 30
0.0
  0
SPLINE
  5
1E6
330
1F
100
AcDbEntity
  8
0
  6
Continuous
 62
     7
370
    15
100
AcDbSpline
210
0.0
220
0.0
230
1.0
 70
     8
 71
     3
 72
    14
 73
    10
 74
     0
 42
0.000000001
 43
0.00000001
 40
0.0
 40
0.0
 40
0.0
 40
0.0
 40
0.0087365295981888
 40
0.048609396100464
 40
0.2762166438756432
 40
0.4771714193209786
 40
0.6563128859402434
 40
0.8280199601725015
 40
1.0
 40
1.0
 40
1.0
 40
1.0
 10
-601.9570668499679
 20
2147.236629064306
 30
0.0
 10
-601.9562622259535
 20
2147.23601297859
 30
0.0
 10
-601.9517853582248
 20
2147.232585123826
 30
0.0
 10
-601.9263257148546
 20
2147.213053699307
 30
0.0
 10
-601.8828569097126
 20
2147.17973045397
 30
0.0
 10
-601.8315302064492
 20
2147.140384763477
 30
0.0
 10
-601.7938064399857
 20
2147.111456696782
 30
0.0
 10
-601.7686956671911
 20
2147.092208571597
 30
0.0
 10
-601.7654418774428
 20
2147.089710695132
 30
0.0
 10
-601.7638136904449
 20
2147.088460764959
 30
0.0
  0
SPLINE
  5
1E7
330
1F
100
AcDbEntity
  8
0
  6
Continuous
 62
     7
370
    15
100
AcDbSpline
210
0.0
220
0.0
230
1.0
 70
    24
 71
     3
 72
     9
 73
     5
 74
     0
 42
0.000000001
 43
0.00000001
 40
0.0
 40
0.0
 40
0.0
 40
0.0
 40
0.5
 40
1.0
 40
1.0
 40
1.0
 40
1.0
 10
-601.7638136904449
 20
2147.088460764959
 30
0.0
 10
-601.8264234027278
 20
2146.611426826057
 30
0.0
 10
-601.9516428272933
 20
2145.657358948253
 30
0.0
 10
-602.0768622518589
 20
2144.703291070448
 30
0.0
 10
-602.1394719641418
 20
2144.226257131546
 30
0.0
  0
SPLINE
  5
1E8
330
1F
100
AcDbEntity
  8
0
  6
Continuous
 62
     7
370
    15
100
AcDbSpline
210
0.0
220
0.0
230
1.0
 70
    24
 71
     3
 72
     9
 73
     5
 74
     0
 42
0.000000001
 43
0.00000001
 40
0.0
 40
0.0
 40
0.0
 40
0.0
 40
0.5
 40
1.0
 40
1.0
 40
1.0
 40
1.0
 10
-599.0972359936446
 20
2148.194227974042
 30
0.0
 10
-599.5416656097781
 20
2148.009933439195
 30
0.0
 10
-600.4305248420447
 20
2147.641344369501
 30
0.0
 10
-601.3193840743114
 20
2147.272755299806
 30
0.0
 10
-601.7638136904449
 20
2147.088460764959
 30
0.0
  0
SPLINE
  5
1E9
330
1F
100
AcDbEntity
  8
0
  6
Continuous
 62
     7
370
    15
100
AcDbSpline
210
0.0
220
0.0
230
1.0
 70
    24
 71
     3
 72
     9
 73
     5
 74
     0
 42
0.000000001
 43
0.00000001
 40
0.0
 40
0.0
 40
0.0
 40
0.0
 40
0.5
 40
1.0
 40
1.0
 40
1.0
 40
1.0
 10
-599.8485674421996
 20
2142.469820707217
 30
0.0
 10
-599.4041378260662
 20
2142.654115242064
 30
0.0
 10
-598.5152785937995
 20
2143.022704311758
 30
0.0
 10
-597.6264193615328
 20
2143.391293381452
 30
0.0
 10
-597.1819897453994
 20
2143.575587916299
 30
0.0
  0
CIRCLE
  5
1EA
330
1F
100
AcDbEntity
  8
0
  6
Continuous
 62
     7
370
    15
100
AcDbCircle
 10
-599.4729020755
 20
2145.3320243406
 30
0.0
 40
15.00000000000001
  0
LINE
  5
1EB
330
1F
100
AcDbEntity
  8
0
  6
Continuous
 62
     7
370
    15
100
AcDbLine
 10
1358.3688671429
 20
2144.510108478
 30
0.0
 11
1360.1597482998
 21
2143.0520183883
 31
0.0
  0
LINE
  5
1EC
330
1F
100
AcDbEntity
  8
0
  6
Continuous
 62
     7
370
    15
100
AcDbLine
 10
1358.736150964
 20
2146.7901144886
 30
0.0
 11
1358.3688671429
 21
2144.510108478
 31
0.0
  0
LINE
  5
1ED
330
1F
100
AcDbEntity
  8
0
  6
Continuous
 62
     7
370
    15
100
AcDbLine
 10
1362.6853163082
 20
2146.1539402032
 30
0.0
 11
1362.3180324871
 21
2143.8739341927
 31
0.0
  0
LINE
  5
1EE
330
1F
100
AcDbEntity
  8
0
  6
Continuous
 62
     7
370
    15
100
AcDbLine
 10
1358.736150964
 20
2146.7901144886
 30
0.0
 11
1360.8944351513
 21
2147.612030293
 31
0.0
  0
LINE
  5
1EF
330
1F
100
AcDbEntity
  8
0
  6
Continuous
 62
     7
370
    15
100
AcDbLine
 10
1362.3180324871
 20
2143.8739341927
 30
0.0
 11
1360.1597482998
 21
2143.0520183883
 31
0.0
  0
LINE
  5
1F0
330
1F
100
AcDbEntity
  8
0
  6
Continuous
 62
     7
370
    15
100
AcDbLine
 10
1362.6853163082
 20
2146.1539402032
 30
0.0
 11
1360.8944351513
 21
2147.612030293
 31
0.0
  0
LINE
  5
1F1
330
1F
100
AcDbEntity
  8
0
  6
Continuous
 62
     7
370
    15
100
AcDbLine
 10
-601.263797776
 20
2146.7901144886
 30
0.0
 11
-599.1056029957
 21
2147.612030293
 31
0.0
  0
LINE
  5
1F2
330
1F
100
AcDbEntity
  8
0
  6
Continuous
 62
     7
370
    15
100
AcDbLine
 10
-597.3147143882
 20
2146.1539402032
 30
0.0
 11
-597.6820056598
 21
2143.8739341927
 31
0.0
  0
LINE
  5
1F3
330
1F
100
AcDbEntity
  8
0
  6
Continuous
 62
     7
370
    15
100
AcDbLine
 10
-597.6820056598
 20
2143.8739341927
 30
0.0
 11
-599.8402004402
 21
2143.0520183883
 31
0.0
  0
LINE
  5
1F4
330
1F
100
AcDbEntity
  8
0
  6
Continuous
 62
     7
370
    15
100
AcDbLine
 10
-601.6310964983
 20
2144.510108478
 30
0.0
 11
-599.8402004402
 21
2143.0520183883
 31
0.0
  0
LINE
  5
1F5
330
1F
100
AcDbEntity
  8
0
  6
Continuous
 62
     7
370
    15
100
AcDbLine
 10
-597.3147143882
 20
2146.1539402032
 30
0.0
 11
-599.1056029957
 21
2147.612030293
 31
0.0
  0
LINE
  5
1F6
330
1F
100
AcDbEntity
  8
0
  6
Continuous
 62
     7
370
    15
100
AcDbLine
 10
-601.263797776
 20
2146.7901144886
 30
0.0
 11
-601.6310964983
 21
2144.510108478
 31
0.0
  0
CIRCLE
  5
1F7
330
1F
100
AcDbEntity
  8
0
  6
Continuous
 62
     7
370
    15
100
AcDbCircle
 10
1360.5270979244
 20
2145.3320243406
 30
0.0
 40
20.00000000000009
  0
CIRCLE
  5
1F8
330
1F
100
AcDbEntity
  8
0
  6
Continuous
 62
     7
370
    15
100
AcDbCircle
 10
-599.4729020755
 20
2145.3320243406
 30
0.0
 40
19.99999999999987
  0
ARC
  5
1F9
330
1F
100
AcDbEntity
  8
0
  6
Continuous
 62
     7
370
    15
100
AcDbCircle
 10
693.1936979244
 20
2145.3320243406
 30
0.0
 40
14.99999999999969
100
AcDbArc
 50
56.4426902381
 51
123.5573097619
  0
ARC
  5
1FA
330
1F
100
AcDbEntity
  8
0
  6
Continuous
 62
     7
370
    15
100
AcDbCircle
 10
693.1936979244
 20
2145.3320243406
 30
0.0
 40
14.99999999999931
100
AcDbArc
 50
236.4426902381
 51
303.5573097619
  0
ARC
  5
1FB
330
1F
100
AcDbEntity
  8
0
  6
Continuous
 62
     7
370
    15
100
AcDbCircle
 10
693.1936979244
 20
2145.3320243406
 30
0.0
 40
29.99999999999994
100
AcDbArc
 50
204.6243183522
 51
335.3756816478
  0
ARC
  5
1FC
330
1F
100
AcDbEntity
  8
0
  6
Continuous
 62
     7
370
    15
100
AcDbCircle
 10
693.1936979244
 20
2145.3320243406
 30
0.0
 40
30.00000000000012
100
AcDbArc
 50
24.6243183522
 51
155.3756816478
  0
ARC
  5
1FD
330
1F
100
AcDbEntity
  8
0
  6
Continuous
 62
     7
370
    15
100
AcDbCircle
 10
1306.5269979245
 20
2145.3320243406
 30
0.0
 40
14.99999999999975
100
AcDbArc
 50
56.4426902381
 51
123.5573097619
  0
ARC
  5
1FE
330
1F
100
AcDbEntity
  8
0
  6
Continuous
 62
     7
370
    15
100
AcDbCircle
 10
1306.5269979245
 20
2145.3320243406
 30
0.0
 40
14.99999999999975
100
AcDbArc
 50
236.4426902381
 51
303.5573097619
  0
ARC
  5
1FF
330
1F
100
AcDbEntity
  8
0
  6
Continuous
 62
     7
370
    15
100
AcDbCircle
 10
1306.5269979245
 20
2145.3320243406
 30
0.0
 40
30.00000000000003
100
AcDbArc
 50
204.6243183522
 51
335.3756816478
  0
ARC
  5
200
330
1F
100
AcDbEntity
  8
0
  6
Continuous
 62
     7
370
    15
100
AcDbCircle
 10
1306.5269979245
 20
2145.3320243406
 30
0.0
 40
30.00000000000024
100
AcDbArc
 50
24.6243183522
 51
155.3756816478
  0
ARC
  5
201
330
1F
100
AcDbEntity
  8
0
  6
Continuous
 62
     7
370
    15
100
AcDbCircle
 10
-533.4729020755
 20
2145.3320243406
 30
0.0
 40
14.99999999999969
100
AcDbArc
 50
56.4426902381
 51
123.5573097619
  0
ARC
  5
202
330
1F
100
AcDbEntity
  8
0
  6
Continuous
 62
     7
370
    15
100
AcDbCircle
 10
-533.4729020755
 20
2145.3320243406
 30
0.0
 40
14.99999999999931
100
AcDbArc
 50
236.4426902381
 51
303.5573097619
  0
ARC
  5
203
330
1F
100
AcDbEntity
  8
0
  6
Continuous
 62
     7
370
    15
100
AcDbCircle
 10
-533.4729020755
 20
2145.3320243406
 30
0.0
 40
30.0000000000001
100
AcDbArc
 50
238.8910774895
 51
335.3756816478
  0
ARC
  5
204
330
1F
100
AcDbEntity
  8
0
  6
Continuous
 62
     7
370
    15
100
AcDbCircle
 10
-533.4729020755
 20
2145.3320243406
 30
0.0
 40
30.00000000000008
100
AcDbArc
 50
24.6243183522
 51
95.3833504544
  0
ARC
  5
205
330
1F
100
AcDbEntity
  8
0
  6
Continuous
 62
     7
370
    15
100
AcDbCircle
 10
79.8603979244
 20
2145.3320243406
 30
0.0
 40
14.99999999999959
100
AcDbArc
 50
56.4426902381
 51
123.5573097619
  0
ARC
  5
206
330
1F
100
AcDbEntity
  8
0
  6
Continuous
 62
     7
370
    15
100
AcDbCircle
 10
79.8603979244
 20
2145.3320243406
 30
0.0
 40
14.99999999999927
100
AcDbArc
 50
236.4426902381
 51
303.5573097619
  0
ARC
  5
207
330
1F
100
AcDbEntity
  8
0
  6
Continuous
 62
     7
370
    15
100
AcDbCircle
 10
79.8603979244
 20
2145.3320243406
 30
0.0
 40
29.9999999999998
100
AcDbArc
 50
204.6243183522
 51
335.3756816478
  0
ARC
  5
208
330
1F
100
AcDbEntity
  8
0
  6
Continuous
 62
     7
370
    15
100
AcDbCircle
 10
79.8603979244
 20
2145.3320243406
 30
0.0
 40
29.99999999999999
100
AcDbArc
 50
24.6243183522
 51
155.3756816478
  0
LINE
  5
209
330
1F
100
AcDbEntity
  8
0
  6
Continuous
 62
     8
370
    15
100
AcDbLine
 10
250.81157039
 20
60.3319861937
 30
0.0
 11
250.7863576252
 21
54.331944232
 31
0.0
  0
LINE
  5
20A
330
1F
100
AcDbEntity
  8
0
  6
Continuous
 62
     8
370
    15
100
AcDbLine
 10
277.2426540692
 20
60.3319861937
 30
0.0
 11
277.2678668339
 21
54.331944232
 31
0.0
  0
LINE
  5
20B
330
1F
100
AcDbEntity
  8
0
  6
Continuous
 62
     7
370
    15
100
AcDbLine
 10
-540.9729019079
 20
-355.8637873953
 30
0.0
 11
-549.0675437536
 21
-355.8637873953
 31
0.0
  0
LINE
  5
20C
330
1F
100
AcDbEntity
  8
0
  6
Continuous
 62
     7
370
    15
100
AcDbLine
 10
-578.8782601516
 20
-355.8637873953
 30
0.0
 11
-583.5510221582
 21
-355.8637873953
 31
0.0
  0
LINE
  5
20D
330
1F
100
AcDbEntity
  8
0
  6
Continuous
 62
     7
370
    15
100
AcDbLine
 10
-615.394785003
 20
-355.8637873953
 30
0.0
 11
-663.4728973072
 21
-355.8637873953
 31
0.0
  0
LINE
  5
20E
330
1F
100
AcDbEntity
  8
0
  6
Continuous
 62
     7
370
    15
100
AcDbLine
 10
72.3603899319
 20
-355.8637873953
 30
0.0
 11
-525.9907640788
 21
-355.8637873953
 31
0.0
  0
LINE
  5
20F
330
1F
100
AcDbEntity
  8
0
  6
Continuous
 62
     7
370
    15
100
AcDbLine
 10
685.6937343914
 20
-355.8637873953
 30
0.0
 11
201.9324834187
 21
-355.8637873953
 31
0.0
  0
LINE
  5
210
330
1F
100
AcDbEntity
  8
0
  6
Continuous
 62
     7
370
    15
100
AcDbLine
 10
172.1217567761
 20
-355.8637873953
 30
0.0
 11
87.342553838
 21
-355.8637873953
 31
0.0
  0
LINE
  5
211
330
1F
100
AcDbEntity
  8
0
  6
Continuous
 62
     7
370
    15
100
AcDbLine
 10
1299.0269596417
 20
-355.8637873953
 30
0.0
 11
700.6758386929
 21
-355.8637873953
 31
0.0
  0
LINE
  5
212
330
1F
100
AcDbEntity
  8
0
  6
Continuous
 62
     7
370
    15
100
AcDbLine
 10
1436.5271265347
 20
-355.8637873953
 30
0.0
 11
1376.4489824612
 21
-355.8637873953
 31
0.0
  0
LINE
  5
213
330
1F
100
AcDbEntity
  8
0
  6
Continuous
 62
     7
370
    15
100
AcDbLine
 10
1344.6052009899
 20
-355.8637873953
 30
0.0
 11
1314.0091831524
 21
-355.8637873953
 31
0.0
  0
LINE
  5
214
330
1F
100
AcDbEntity
  8
0
  6
Continuous
 62
     7
370
    15
100
AcDbLine
 10
1314.0771324475
 20
-380.8637859052
 30
0.0
 11
1344.643944009
 21
-380.8637859052
 31
0.0
  0
LINE
  5
215
330
1F
100
AcDbEntity
  8
0
  6
Continuous
 62
     7
370
    15
100
AcDbLine
 10
1376.4145309765
 20
-380.8637859052
 30
0.0
 11
1436.5271265347
 21
-380.8637859052
 31
0.0
  0
LINE
  5
216
330
1F
100
AcDbEntity
  8
0
  6
Continuous
 62
     7
370
    15
100
AcDbLine
 10
701.0770971615
 20
-380.8637859052
 30
0.0
 11
1299.0090782482
 21
-380.8637859052
 31
0.0
  0
LINE
  5
217
330
1F
100
AcDbEntity
  8
0
  6
Continuous
 62
     7
370
    15
100
AcDbLine
 10
87.3104269345
 20
-380.8637859052
 30
0.0
 11
172.0271046002
 21
-380.8637859052
 31
0.0
  0
LINE
  5
218
330
1F
100
AcDbEntity
  8
0
  6
Continuous
 62
     7
370
    15
100
AcDbLine
 10
202.0270759899
 20
-380.8637859052
 30
0.0
 11
685.7436830838
 21
-380.8637859052
 31
0.0
  0
LINE
  5
219
330
1F
100
AcDbEntity
  8
0
  6
Continuous
 62
     7
370
    15
100
AcDbLine
 10
-525.9229018625
 20
-380.8637859052
 30
0.0
 11
72.0090801556
 21
-380.8637859052
 31
0.0
  0
LINE
  5
21A
330
1F
100
AcDbEntity
  8
0
  6
Continuous
 62
     7
370
    15
100
AcDbLine
 10
-663.4728973072
 20
-380.8637859052
 30
0.0
 11
-615.356004731
 21
-380.8637859052
 31
0.0
  0
LINE
  5
21B
330
1F
100
AcDbEntity
  8
0
  6
Continuous
 62
     7
370
    15
100
AcDbLine
 10
-583.5854848187
 20
-380.8637859052
 30
0.0
 11
-578.9729011517
 21
-380.8637859052
 31
0.0
  0
LINE
  5
21C
330
1F
100
AcDbEntity
  8
0
  6
Continuous
 62
     7
370
    15
100
AcDbLine
 10
-548.9729018222
 20
-380.8637859052
 30
0.0
 11
-540.9909434888
 21
-380.8637859052
 31
0.0
  0
LINE
  5
21D
330
1F
100
AcDbEntity
  8
0
  6
Continuous
 62
     7
370
    15
100
AcDbLine
 10
700.6436521847
 20
-380.8637859052
 30
0.0
 11
700.6436521847
 21
-380.6100973612
 31
0.0
  0
LINE
  5
21E
330
1F
100
AcDbEntity
  8
0
  6
Continuous
 62
     7
370
    15
100
AcDbLine
 10
685.7436830838
 20
-380.8637859052
 30
0.0
 11
686.7437298138
 21
-381.8637879317
 31
0.0
  0
LINE
  5
21F
330
1F
100
AcDbEntity
  8
0
  6
Continuous
 62
     7
370
    15
100
AcDbLine
 10
699.643724664
 20
-381.8637879317
 30
0.0
 11
700.6436521847
 21
-380.8637859052
 31
0.0
  0
LINE
  5
220
330
1F
100
AcDbEntity
  8
0
  6
Continuous
 62
     7
370
    15
100
AcDbLine
 10
-540.9229019928
 20
-380.8637859052
 30
0.0
 11
-539.9229022946
 21
-381.8637879317
 31
0.0
  0
LINE
  5
221
330
1F
100
AcDbEntity
  8
0
  6
Continuous
 62
     7
370
    15
100
AcDbLine
 10
-527.0229018565
 20
-381.8637879317
 30
0.0
 11
-526.0229021583
 21
-380.8637859052
 31
0.0
  0
LINE
  5
222
330
1F
100
AcDbEntity
  8
0
  6
Continuous
 62
     7
370
    15
100
AcDbLine
 10
72.4103982289
 20
-380.6100973612
 30
0.0
 11
72.4103982289
 21
-380.8637859052
 31
0.0
  0
LINE
  5
223
330
1F
100
AcDbEntity
  8
0
  6
Continuous
 62
     7
370
    15
100
AcDbLine
 10
72.4103982289
 20
-380.8637859052
 30
0.0
 11
73.4103853543
 21
-381.8637879317
 31
0.0
  0
LINE
  5
224
330
1F
100
AcDbEntity
  8
0
  6
Continuous
 62
     7
370
    15
100
AcDbLine
 10
86.3103802044
 20
-381.8637879317
 30
0.0
 11
87.3104269345
 21
-380.8637859052
 31
0.0
  0
LINE
  5
225
330
1F
100
AcDbEntity
  8
0
  6
Continuous
 62
     7
370
    15
100
AcDbLine
 10
1299.0770275433
 20
-380.8637859052
 30
0.0
 11
1300.076955064
 21
-381.8637879317
 31
0.0
  0
LINE
  5
226
330
1F
100
AcDbEntity
  8
0
  6
Continuous
 62
     7
370
    15
100
AcDbLine
 10
1312.9769499142
 20
-381.8637879317
 30
0.0
 11
1313.9769966442
 21
-380.8637859052
 31
0.0
  0
ARC
  5
227
330
1F
100
AcDbEntity
  8
0
  6
Continuous
 62
     7
370
    15
100
AcDbCircle
 10
-549.1729020756
 20
-356.0337866658
 30
0.0
 40
0.2000000000000455
100
AcDbArc
 50
0.0
 51
80.7694259592
  0
ARC
  5
228
330
1F
100
AcDbEntity
  8
0
  6
Continuous
 62
     7
370
    15
100
AcDbCircle
 10
-578.7729020755
 20
-356.0337866658
 30
0.0
 40
0.2000000000000593
100
AcDbArc
 50
99.2305740409
 51
180.0
  0
LINE
  5
229
330
1F
100
AcDbEntity
  8
0
  6
Continuous
 62
     7
370
    15
100
AcDbLine
 10
-578.9729011517
 20
-356.0337872928
 30
0.0
 11
-578.9729011517
 21
-357.1637870496
 31
0.0
  0
LINE
  5
22A
330
1F
100
AcDbEntity
  8
0
  6
Continuous
 62
     7
370
    15
100
AcDbLine
 10
-548.9729018222
 20
-357.1637870496
 30
0.0
 11
-548.9729018222
 21
-356.0337872928
 31
0.0
  0
ARC
  5
22B
330
1F
100
AcDbEntity
  8
0
  6
Continuous
 62
     7
370
    15
100
AcDbCircle
 10
-578.7729020755
 20
-357.1637875145
 30
0.0
 40
0.2000000000000455
100
AcDbArc
 50
180.0
 51
270.0
  0
ARC
  5
22C
330
1F
100
AcDbEntity
  8
0
  6
Continuous
 62
     7
370
    15
100
AcDbCircle
 10
-549.1729020756
 20
-357.1637875145
 30
0.0
 40
0.2000000000000455
100
AcDbArc
 50
270.0
 51
0.0
  0
ARC
  5
22D
330
1F
100
AcDbEntity
  8
0
  6
Continuous
 62
     7
370
    15
100
AcDbCircle
 10
-568.3897706838
 20
-474.2824735968
 30
0.0
 40
120.0
100
AcDbArc
 50
80.7694259592
 51
86.6345808759
  0
ARC
  5
22E
330
1F
100
AcDbEntity
  8
0
  6
Continuous
 62
     7
370
    15
100
AcDbCircle
 10
-559.5560334673
 20
-474.2824735968
 30
0.0
 40
120.0
100
AcDbArc
 50
93.3646779168
 51
99.2305740408
  0
ARC
  5
22F
330
1F
100
AcDbEntity
  8
0
  6
Continuous
 62
     7
370
    15
100
AcDbCircle
 10
-573.9229020755
 20
-357.5637875145
 30
0.0
 40
0.1999999999999886
100
AcDbArc
 50
0.0
 51
90.0
  0
ARC
  5
230
330
1F
100
AcDbEntity
  8
0
  6
Continuous
 62
     7
370
    15
100
AcDbCircle
 10
-554.0229020756
 20
-357.5637875145
 30
0.0
 40
0.1999999999999886
100
AcDbArc
 50
90.0
 51
180.0
  0
LINE
  5
231
330
1F
100
AcDbEntity
  8
0
  6
Continuous
 62
     7
370
    15
100
AcDbLine
 10
-573.7229016881
 20
-357.5637882328
 30
0.0
 11
-573.7229016881
 21
-357.8637877231
 31
0.0
  0
LINE
  5
232
330
1F
100
AcDbEntity
  8
0
  6
Continuous
 62
     7
370
    15
100
AcDbLine
 10
-554.2229012858
 20
-357.8637877231
 30
0.0
 11
-554.2229012858
 21
-357.5637882328
 31
0.0
  0
LINE
  5
233
330
1F
100
AcDbEntity
  8
0
  6
Continuous
 62
     7
370
    15
100
AcDbLine
 10
172.0271046002
 20
-356.0337872928
 30
0.0
 11
172.0271046002
 21
-357.1637870496
 31
0.0
  0
LINE
  5
234
330
1F
100
AcDbEntity
  8
0
  6
Continuous
 62
     7
370
    15
100
AcDbLine
 10
202.0270759899
 20
-357.1637870496
 30
0.0
 11
202.0270759899
 21
-356.0337872928
 31
0.0
  0
ARC
  5
235
330
1F
100
AcDbEntity
  8
0
  6
Continuous
 62
     7
370
    15
100
AcDbCircle
 10
201.8270979244
 20
-356.0337866658
 30
0.0
 40
0.2000000000000274
100
AcDbArc
 50
0.0
 51
80.7694259592
  0
ARC
  5
236
330
1F
100
AcDbEntity
  8
0
  6
Continuous
 62
     7
370
    15
100
AcDbCircle
 10
172.2270979244
 20
-356.0337866658
 30
0.0
 40
0.2000000000000274
100
AcDbArc
 50
99.2305740408
 51
180.0
  0
ARC
  5
237
330
1F
100
AcDbEntity
  8
0
  6
Continuous
 62
     7
370
    15
100
AcDbCircle
 10
172.2270979244
 20
-357.1637875145
 30
0.0
 40
0.2000000000000455
100
AcDbArc
 50
180.0
 51
270.0
  0
ARC
  5
238
330
1F
100
AcDbEntity
  8
0
  6
Continuous
 62
     7
370
    15
100
AcDbCircle
 10
201.8270979244
 20
-357.1637875145
 30
0.0
 40
0.1999999999999886
100
AcDbArc
 50
270.0
 51
0.0
  0
ARC
  5
239
330
1F
100
AcDbEntity
  8
0
  6
Continuous
 62
     7
370
    15
100
AcDbCircle
 10
182.6102293162
 20
-474.2824735968
 30
0.0
 40
120.0
100
AcDbArc
 50
80.7694259592
 51
86.6345808759
  0
ARC
  5
23A
330
1F
100
AcDbEntity
  8
0
  6
Continuous
 62
     7
370
    15
100
AcDbCircle
 10
191.4439665327
 20
-474.2824735968
 30
0.0
 40
120.0000000000001
100
AcDbArc
 50
93.3646779168
 51
99.2305740408
  0
ARC
  5
23B
330
1F
100
AcDbEntity
  8
0
  6
Continuous
 62
     7
370
    15
100
AcDbCircle
 10
177.0770979244
 20
-357.5637875145
 30
0.0
 40
0.1999999999999602
100
AcDbArc
 50
0.0
 51
90.0
  0
ARC
  5
23C
330
1F
100
AcDbEntity
  8
0
  6
Continuous
 62
     7
370
    15
100
AcDbCircle
 10
196.9770979244
 20
-357.5637875145
 30
0.0
 40
0.1999999999999886
100
AcDbArc
 50
90.0
 51
180.0
  0
LINE
  5
23D
330
1F
100
AcDbEntity
  8
0
  6
Continuous
 62
     7
370
    15
100
AcDbLine
 10
177.277081712
 20
-357.5637882328
 30
0.0
 11
177.277081712
 21
-357.8637877231
 31
0.0
  0
LINE
  5
23E
330
1F
100
AcDbEntity
  8
0
  6
Continuous
 62
     7
370
    15
100
AcDbLine
 10
196.7770988781
 20
-357.8637877231
 30
0.0
 11
196.7770988781
 21
-357.5637882328
 31
0.0
  0
LINE
  5
23F
330
1F
100
AcDbEntity
  8
0
  6
Continuous
 62
     7
370
    15
100
AcDbLine
 10
199.5270783741
 20
-392.6954010254
 30
0.0
 11
199.5270783741
 21
-391.3637885576
 31
0.0
  0
LINE
  5
240
330
1F
100
AcDbEntity
  8
0
  6
Continuous
 62
     7
370
    15
100
AcDbLine
 10
174.527102216
 20
-391.3637885576
 30
0.0
 11
174.527102216
 21
-392.6954010254
 31
0.0
  0
ARC
  5
241
330
1F
100
AcDbEntity
  8
0
  6
Continuous
 62
     7
370
    15
100
AcDbCircle
 10
174.7270979244
 20
-392.6954002168
 30
0.0
 40
0.2000000000000018
100
AcDbArc
 50
180.0
 51
260.2307482568
  0
ARC
  5
242
330
1F
100
AcDbEntity
  8
0
  6
Continuous
 62
     7
370
    15
100
AcDbCircle
 10
199.3270979244
 20
-392.6954002168
 30
0.0
 40
0.2000000000000578
100
AcDbArc
 50
279.7692517432
 51
0.0
  0
ARC
  5
243
330
1F
100
AcDbEntity
  8
0
  6
Continuous
 62
     7
370
    15
100
AcDbCircle
 10
195.054839475
 20
-274.6326079263
 30
0.0
 40
120.0
100
AcDbArc
 50
260.2307482568
 51
266.16417102
  0
ARC
  5
244
330
1F
100
AcDbEntity
  8
0
  6
Continuous
 62
     7
370
    15
100
AcDbCircle
 10
178.9993563739
 20
-274.6326079263
 30
0.0
 40
120.0
100
AcDbArc
 50
273.83582898
 51
279.7692517432
  0
LINE
  5
245
330
1F
100
AcDbEntity
  8
0
  6
Continuous
 62
     7
370
    15
100
AcDbLine
 10
-551.4729013007
 20
-392.6954010254
 30
0.0
 11
-551.4729013007
 21
-391.3637885576
 31
0.0
  0
LINE
  5
246
330
1F
100
AcDbEntity
  8
0
  6
Continuous
 62
     7
370
    15
100
AcDbLine
 10
-576.4729035359
 20
-391.3637885576
 30
0.0
 11
-576.4729035359
 21
-392.6954010254
 31
0.0
  0
ARC
  5
247
330
1F
100
AcDbEntity
  8
0
  6
Continuous
 62
     7
370
    15
100
AcDbCircle
 10
-576.2729020755
 20
-392.6954002168
 30
0.0
 40
0.2000000000000481
100
AcDbArc
 50
180.0
 51
260.2307482568
  0
ARC
  5
248
330
1F
100
AcDbEntity
  8
0
  6
Continuous
 62
     7
370
    15
100
AcDbCircle
 10
-551.6729020755
 20
-392.6954002168
 30
0.0
 40
0.2000000000000481
100
AcDbArc
 50
279.7692517432
 51
0.0
  0
ARC
  5
249
330
1F
100
AcDbEntity
  8
0
  6
Continuous
 62
     7
370
    15
100
AcDbCircle
 10
-555.945160525
 20
-274.6326079263
 30
0.0
 40
120.0
100
AcDbArc
 50
260.2307482568
 51
266.16417102
  0
ARC
  5
24A
330
1F
100
AcDbEntity
  8
0
  6
Continuous
 62
     7
370
    15
100
AcDbCircle
 10
-572.0006436261
 20
-274.6326079263
 30
0.0
 40
120.0
100
AcDbArc
 50
273.83582898
 51
279.7692517432
  0
LINE
  5
24B
330
1F
100
AcDbEntity
  8
0
  6
Continuous
 62
     7
370
    15
100
AcDbLine
 10
216.0270745594
 20
-378.8637893027
 30
0.0
 11
216.0270745594
 21
-377.3637862628
 31
0.0
  0
LINE
  5
24C
330
1F
100
AcDbEntity
  8
0
  6
Continuous
 62
     7
370
    15
100
AcDbLine
 10
158.0271060307
 20
-377.3637862628
 30
0.0
 11
158.0271060307
 21
-378.8637893027
 31
0.0
  0
LINE
  5
24D
330
1F
100
AcDbEntity
  8
0
  6
Continuous
 62
     7
370
    15
100
AcDbLine
 10
-534.9729020886
 20
-378.8637893027
 30
0.0
 11
-534.9729020886
 21
-377.3637862628
 31
0.0
  0
LINE
  5
24E
330
1F
100
AcDbEntity
  8
0
  6
Continuous
 62
     7
370
    15
100
AcDbLine
 10
-592.9729034465
 20
-377.3637862628
 30
0.0
 11
-592.9729034465
 21
-378.8637893027
 31
0.0
  0
LINE
  5
24F
330
1F
100
AcDbEntity
  8
0
  6
Continuous
 62
     7
370
    15
100
AcDbLine
 10
158.0271060307
 20
-357.8637877231
 30
0.0
 11
158.0271060307
 21
-359.3637870377
 31
0.0
  0
LINE
  5
250
330
1F
100
AcDbEntity
  8
0
  6
Continuous
 62
     7
370
    15
100
AcDbLine
 10
216.0270745594
 20
-359.3637870377
 30
0.0
 11
216.0270745594
 21
-357.8637877231
 31
0.0
  0
LINE
  5
251
330
1F
100
AcDbEntity
  8
0
  6
Continuous
 62
     7
370
    15
100
AcDbLine
 10
-592.9729034465
 20
-357.8637877231
 30
0.0
 11
-592.9729034465
 21
-359.3637870377
 31
0.0
  0
LINE
  5
252
330
1F
100
AcDbEntity
  8
0
  6
Continuous
 62
     7
370
    15
100
AcDbLine
 10
-534.9729020886
 20
-359.3637870377
 30
0.0
 11
-534.9729020886
 21
-357.8637877231
 31
0.0
  0
LINE
  5
253
330
1F
100
AcDbEntity
  8
0
  6
Continuous
 62
     7
370
    15
100
AcDbLine
 10
216.0270745594
 20
-360.3842166936
 30
0.0
 11
216.0270745594
 21
-359.3637870377
 31
0.0
  0
LINE
  5
254
330
1F
100
AcDbEntity
  8
0
  6
Continuous
 62
     7
370
    15
100
AcDbLine
 10
158.0271060307
 20
-359.3637870377
 30
0.0
 11
158.0271060307
 21
-360.3842166936
 31
0.0
  0
ARC
  5
255
330
1F
100
AcDbEntity
  8
0
  6
Continuous
 62
     7
370
    15
100
AcDbCircle
 10
225.6270979244
 20
-368.3898389378
 30
0.0
 40
12.50000000000001
100
AcDbArc
 50
140.1746287392
 51
219.8253712608
  0
ARC
  5
256
330
1F
100
AcDbEntity
  8
0
  6
Continuous
 62
     7
370
    15
100
AcDbCircle
 10
148.4270979244
 20
-368.3898389378
 30
0.0
 40
12.49999999999997
100
AcDbArc
 50
320.1746287392
 51
39.8253712608
  0
LINE
  5
257
330
1F
100
AcDbEntity
  8
0
  6
Continuous
 62
     7
370
    15
100
AcDbLine
 10
216.0270745594
 20
-377.3637862628
 30
0.0
 11
216.0270745594
 21
-376.3954603797
 31
0.0
  0
LINE
  5
258
330
1F
100
AcDbEntity
  8
0
  6
Continuous
 62
     7
370
    15
100
AcDbLine
 10
158.0271060307
 20
-376.3954603797
 30
0.0
 11
158.0271060307
 21
-377.3637862628
 31
0.0
  0
LINE
  5
259
330
1F
100
AcDbEntity
  8
0
  6
Continuous
 62
     7
370
    15
100
AcDbLine
 10
-534.9729020886
 20
-360.3842166936
 30
0.0
 11
-534.9729020886
 21
-359.3637870377
 31
0.0
  0
LINE
  5
25A
330
1F
100
AcDbEntity
  8
0
  6
Continuous
 62
     7
370
    15
100
AcDbLine
 10
-592.9729034465
 20
-359.3637870377
 30
0.0
 11
-592.9729034465
 21
-360.3842166936
 31
0.0
  0
ARC
  5
25B
330
1F
100
AcDbEntity
  8
0
  6
Continuous
 62
     7
370
    15
100
AcDbCircle
 10
-525.3729020755
 20
-368.3898389378
 30
0.0
 40
12.50000000000004
100
AcDbArc
 50
140.1746287392
 51
219.8253712608
  0
ARC
  5
25C
330
1F
100
AcDbEntity
  8
0
  6
Continuous
 62
     7
370
    15
100
AcDbCircle
 10
-602.5729020755
 20
-368.3898389378
 30
0.0
 40
12.50000000000004
100
AcDbArc
 50
320.1746287392
 51
39.8253712608
  0
LINE
  5
25D
330
1F
100
AcDbEntity
  8
0
  6
Continuous
 62
     7
370
    15
100
AcDbLine
 10
-534.9729020886
 20
-377.3637862628
 30
0.0
 11
-534.9729020886
 21
-376.3954603797
 31
0.0
  0
LINE
  5
25E
330
1F
100
AcDbEntity
  8
0
  6
Continuous
 62
     7
370
    15
100
AcDbLine
 10
-592.9729034465
 20
-376.3954603797
 30
0.0
 11
-592.9729034465
 21
-377.3637862628
 31
0.0
  0
LINE
  5
25F
330
1F
100
AcDbEntity
  8
0
  6
Continuous
 62
     7
370
    15
100
AcDbLine
 10
-548.9729018222
 20
-385.0637862211
 30
0.0
 11
-548.9729018222
 21
-379.6637879437
 31
0.0
  0
LINE
  5
260
330
1F
100
AcDbEntity
  8
0
  6
Continuous
 62
     7
370
    15
100
AcDbLine
 10
-578.9729011517
 20
-379.6637879437
 30
0.0
 11
-578.9729011517
 21
-385.0637862211
 31
0.0
  0
LINE
  5
261
330
1F
100
AcDbEntity
  8
0
  6
Continuous
 62
     7
370
    15
100
AcDbLine
 10
-548.9729018222
 20
-379.6637879437
 30
0.0
 11
-549.2729013126
 21
-379.3637865906
 31
0.0
  0
LINE
  5
262
330
1F
100
AcDbEntity
  8
0
  6
Continuous
 62
     7
370
    15
100
AcDbLine
 10
-578.6729035239
 20
-379.3637865906
 30
0.0
 11
-578.9729011517
 21
-379.6637879437
 31
0.0
  0
LINE
  5
263
330
1F
100
AcDbEntity
  8
0
  6
Continuous
 62
     7
370
    15
100
AcDbLine
 10
-578.9729011517
 20
-385.0637862211
 30
0.0
 11
-578.6729035239
 21
-385.3637875741
 31
0.0
  0
LINE
  5
264
330
1F
100
AcDbEntity
  8
0
  6
Continuous
 62
     7
370
    15
100
AcDbLine
 10
-549.2729013126
 20
-385.3637875741
 30
0.0
 11
-548.9729018222
 21
-385.0637862211
 31
0.0
  0
LINE
  5
265
330
1F
100
AcDbEntity
  8
0
  6
Continuous
 62
     7
370
    15
100
AcDbLine
 10
-554.2229012858
 20
-379.3637865906
 30
0.0
 11
-554.2229012858
 21
-378.8637893027
 31
0.0
  0
LINE
  5
266
330
1F
100
AcDbEntity
  8
0
  6
Continuous
 62
     7
370
    15
100
AcDbLine
 10
-573.7229016881
 20
-378.8637893027
 30
0.0
 11
-573.7229016881
 21
-379.3637865906
 31
0.0
  0
LINE
  5
267
330
1F
100
AcDbEntity
  8
0
  6
Continuous
 62
     7
370
    15
100
AcDbLine
 10
202.0270759899
 20
-385.0637862211
 30
0.0
 11
202.0270759899
 21
-379.6637879437
 31
0.0
  0
LINE
  5
268
330
1F
100
AcDbEntity
  8
0
  6
Continuous
 62
     7
370
    15
100
AcDbLine
 10
172.0271046002
 20
-379.6637879437
 30
0.0
 11
172.0271046002
 21
-385.0637862211
 31
0.0
  0
LINE
  5
269
330
1F
100
AcDbEntity
  8
0
  6
Continuous
 62
     7
370
    15
100
AcDbLine
 10
202.0270759899
 20
-379.6637879437
 30
0.0
 11
201.7270858128
 21
-379.3637865906
 31
0.0
  0
LINE
  5
26A
330
1F
100
AcDbEntity
  8
0
  6
Continuous
 62
     7
370
    15
100
AcDbLine
 10
172.3270947773
 20
-379.3637865906
 30
0.0
 11
172.0271046002
 21
-379.6637879437
 31
0.0
  0
LINE
  5
26B
330
1F
100
AcDbEntity
  8
0
  6
Continuous
 62
     7
370
    15
100
AcDbLine
 10
172.0271046002
 20
-385.0637862211
 30
0.0
 11
172.3270947773
 21
-385.3637875741
 31
0.0
  0
LINE
  5
26C
330
1F
100
AcDbEntity
  8
0
  6
Continuous
 62
     7
370
    15
100
AcDbLine
 10
201.7270858128
 20
-385.3637875741
 30
0.0
 11
202.0270759899
 21
-385.0637862211
 31
0.0
  0
LINE
  5
26D
330
1F
100
AcDbEntity
  8
0
  6
Continuous
 62
     7
370
    15
100
AcDbLine
 10
196.7770988781
 20
-379.3637865906
 30
0.0
 11
196.7770988781
 21
-378.8637893027
 31
0.0
  0
LINE
  5
26E
330
1F
100
AcDbEntity
  8
0
  6
Continuous
 62
     7
370
    15
100
AcDbLine
 10
177.277081712
 20
-378.8637893027
 30
0.0
 11
177.277081712
 21
-379.3637865906
 31
0.0
  0
LINE
  5
26F
330
1F
100
AcDbEntity
  8
0
  6
Continuous
 62
     7
370
    15
100
AcDbLine
 10
1375.5271370251
 20
-394.293788982
 30
0.0
 11
1375.5271370251
 21
-392.9637858396
 31
0.0
  0
LINE
  5
270
330
1F
100
AcDbEntity
  8
0
  6
Continuous
 62
     7
370
    15
100
AcDbLine
 10
1345.527046426
 20
-392.9637858396
 30
0.0
 11
1345.527046426
 21
-394.293788982
 31
0.0
  0
ARC
  5
271
330
1F
100
AcDbEntity
  8
0
  6
Continuous
 62
     7
370
    15
100
AcDbCircle
 10
1345.7270979244
 20
-394.2937883632
 30
0.0
 40
0.1999999999999668
100
AcDbArc
 50
180.0
 51
260.7694259592
  0
ARC
  5
272
330
1F
100
AcDbEntity
  8
0
  6
Continuous
 62
     7
370
    15
100
AcDbCircle
 10
1375.3270979244
 20
-394.2937883632
 30
0.0
 40
0.2000000000000455
100
AcDbArc
 50
279.2305740409
 51
0.0
  0
ARC
  5
273
330
1F
100
AcDbEntity
  8
0
  6
Continuous
 62
     7
370
    15
100
AcDbCircle
 10
1364.9439665327
 20
-276.0451014322
 30
0.0
 40
120.0
100
AcDbArc
 50
260.7694259592
 51
266.5831083863
  0
ARC
  5
274
330
1F
100
AcDbEntity
  8
0
  6
Continuous
 62
     7
370
    15
100
AcDbCircle
 10
1356.1102293162
 20
-276.0451014322
 30
0.0
 40
120.0000000000001
100
AcDbArc
 50
273.4163951255
 51
279.2305740408
  0
LINE
  5
275
330
1F
100
AcDbEntity
  8
0
  6
Continuous
 62
     7
370
    15
100
AcDbLine
 10
-584.4729011219
 20
-394.293788982
 30
0.0
 11
-584.4729011219
 21
-392.9637858396
 31
0.0
  0
LINE
  5
276
330
1F
100
AcDbEntity
  8
0
  6
Continuous
 62
     7
370
    15
100
AcDbLine
 10
-614.472902314
 20
-392.9637858396
 30
0.0
 11
-614.472902314
 21
-394.293788982
 31
0.0
  0
ARC
  5
277
330
1F
100
AcDbEntity
  8
0
  6
Continuous
 62
     7
370
    15
100
AcDbCircle
 10
-614.2729020755
 20
-394.2937883632
 30
0.0
 40
0.2000000000000455
100
AcDbArc
 50
180.0
 51
260.7694259592
  0
ARC
  5
278
330
1F
100
AcDbEntity
  8
0
  6
Continuous
 62
     7
370
    15
100
AcDbCircle
 10
-584.6729020755
 20
-394.2937883632
 30
0.0
 40
0.2000000000000455
100
AcDbArc
 50
279.2305740408
 51
0.0
  0
ARC
  5
279
330
1F
100
AcDbEntity
  8
0
  6
Continuous
 62
     7
370
    15
100
AcDbCircle
 10
-595.0560334673
 20
-276.0451014322
 30
0.0
 40
120.0
100
AcDbArc
 50
260.7694259592
 51
266.5831083863
  0
ARC
  5
27A
330
1F
100
AcDbEntity
  8
0
  6
Continuous
 62
     7
370
    15
100
AcDbCircle
 10
-603.8897706838
 20
-276.0451014322
 30
0.0
 40
120.0
100
AcDbArc
 50
273.4163951255
 51
279.2305740408
  0
LINE
  5
27B
330
1F
100
AcDbEntity
  8
0
  6
Continuous
 62
     7
370
    15
100
AcDbLine
 10
1340.5270511944
 20
-384.9637882536
 30
0.0
 11
1340.5270511944
 21
-392.9637858396
 31
0.0
  0
LINE
  5
27C
330
1F
100
AcDbEntity
  8
0
  6
Continuous
 62
     7
370
    15
100
AcDbLine
 10
1380.5271322567
 20
-392.9637858396
 30
0.0
 11
1380.5271322567
 21
-384.9637882536
 31
0.0
  0
LINE
  5
27D
330
1F
100
AcDbEntity
  8
0
  6
Continuous
 62
     7
370
    15
100
AcDbLine
 10
-619.4729049962
 20
-384.9637882536
 30
0.0
 11
-619.4729049962
 21
-392.9637858396
 31
0.0
  0
LINE
  5
27E
330
1F
100
AcDbEntity
  8
0
  6
Continuous
 62
     7
370
    15
100
AcDbLine
 10
-579.472902165
 20
-392.9637858396
 30
0.0
 11
-579.472902165
 21
-384.9637882536
 31
0.0
  0
LINE
  5
27F
330
1F
100
AcDbEntity
  8
0
  6
Continuous
 62
     7
370
    15
100
AcDbLine
 10
1376.5270645458
 20
-354.1637884205
 30
0.0
 11
1374.7271234829
 21
-352.3637877529
 31
0.0
  0
LINE
  5
280
330
1F
100
AcDbEntity
  8
0
  6
Continuous
 62
     7
370
    15
100
AcDbLine
 10
1346.3270599682
 20
-352.3637877529
 30
0.0
 11
1344.5271189053
 21
-354.1637884205
 31
0.0
  0
LINE
  5
281
330
1F
100
AcDbEntity
  8
0
  6
Continuous
 62
     7
370
    15
100
AcDbLine
 10
1344.5271189053
 20
-380.8637859052
 30
0.0
 11
1344.5271189053
 21
-384.9637882536
 31
0.0
  0
LINE
  5
282
330
1F
100
AcDbEntity
  8
0
  6
Continuous
 62
     7
370
    15
100
AcDbLine
 10
1344.5271189053
 20
-354.1637884205
 30
0.0
 11
1344.5271189053
 21
-355.7637875652
 31
0.0
  0
LINE
  5
283
330
1F
100
AcDbEntity
  8
0
  6
Continuous
 62
     7
370
    15
100
AcDbLine
 10
1376.5270645458
 20
-355.7637875652
 30
0.0
 11
1376.5270645458
 21
-354.1637884205
 31
0.0
  0
LINE
  5
284
330
1F
100
AcDbEntity
  8
0
  6
Continuous
 62
     7
370
    15
100
AcDbLine
 10
1376.5270645458
 20
-384.9637882536
 30
0.0
 11
1376.5270645458
 21
-380.8637859052
 31
0.0
  0
LINE
  5
285
330
1F
100
AcDbEntity
  8
0
  6
Continuous
 62
     7
370
    15
100
AcDbLine
 10
-583.4729028206
 20
-354.1637884205
 30
0.0
 11
-585.2729034882
 21
-352.3637877529
 31
0.0
  0
LINE
  5
286
330
1F
100
AcDbEntity
  8
0
  6
Continuous
 62
     7
370
    15
100
AcDbLine
 10
-613.672903673
 20
-352.3637877529
 30
0.0
 11
-615.4729043405
 21
-354.1637884205
 31
0.0
  0
LINE
  5
287
330
1F
100
AcDbEntity
  8
0
  6
Continuous
 62
     7
370
    15
100
AcDbLine
 10
-615.4729043405
 20
-380.8637859052
 30
0.0
 11
-615.4729043405
 21
-384.9637882536
 31
0.0
  0
LINE
  5
288
330
1F
100
AcDbEntity
  8
0
  6
Continuous
 62
     7
370
    15
100
AcDbLine
 10
-615.4729043405
 20
-354.1637884205
 30
0.0
 11
-615.4729043405
 21
-355.7637875652
 31
0.0
  0
LINE
  5
289
330
1F
100
AcDbEntity
  8
0
  6
Continuous
 62
     7
370
    15
100
AcDbLine
 10
-583.4729028206
 20
-355.7637875652
 30
0.0
 11
-583.4729028206
 21
-354.1637884205
 31
0.0
  0
LINE
  5
28A
330
1F
100
AcDbEntity
  8
0
  6
Continuous
 62
     7
370
    15
100
AcDbLine
 10
-583.4729028206
 20
-384.9637882536
 30
0.0
 11
-583.4729028206
 21
-380.8637859052
 31
0.0
  0
LINE
  5
28B
330
1F
100
AcDbEntity
  8
0
  6
Continuous
 62
     7
370
    15
100
AcDbLine
 10
-540.9729019079
 20
-337.8637877045
 30
0.0
 11
-540.9729019079
 21
-355.8637873953
 31
0.0
  0
LINE
  5
28C
330
1F
100
AcDbEntity
  8
0
  6
Continuous
 62
     7
370
    15
100
AcDbLine
 10
-525.9729022432
 20
-355.8637873953
 30
0.0
 11
-525.9729022432
 21
-337.8637877045
 31
0.0
  0
LINE
  5
28D
330
1F
100
AcDbEntity
  8
0
  6
Continuous
 62
     7
370
    15
100
AcDbLine
 10
685.6937343914
 20
-337.8637877045
 30
0.0
 11
685.6937343914
 21
-355.8637873953
 31
0.0
  0
LINE
  5
28E
330
1F
100
AcDbEntity
  8
0
  6
Continuous
 62
     7
370
    15
100
AcDbLine
 10
700.6937200863
 20
-355.8637873953
 30
0.0
 11
700.6937200863
 21
-337.8637877045
 31
0.0
  0
LINE
  5
28F
330
1F
100
AcDbEntity
  8
0
  6
Continuous
 62
     7
370
    15
100
AcDbLine
 10
1299.0269596417
 20
-337.8637877045
 30
0.0
 11
1299.0269596417
 21
-355.8637873953
 31
0.0
  0
LINE
  5
290
330
1F
100
AcDbEntity
  8
0
  6
Continuous
 62
     7
370
    15
100
AcDbLine
 10
1314.0269453366
 20
-355.8637873953
 30
0.0
 11
1314.0269453366
 21
-337.8637877045
 31
0.0
  0
LINE
  5
291
330
1F
100
AcDbEntity
  8
0
  6
Continuous
 62
     7
370
    15
100
AcDbLine
 10
72.3603899319
 20
-337.8637877045
 30
0.0
 11
72.3603899319
 21
-355.8637873953
 31
0.0
  0
LINE
  5
292
330
1F
100
AcDbEntity
  8
0
  6
Continuous
 62
     7
370
    15
100
AcDbLine
 10
87.3603756268
 20
-355.8637873953
 30
0.0
 11
87.3603756268
 21
-337.8637877045
 31
0.0
  0
LINE
  5
293
330
1F
100
AcDbEntity
  8
0
  6
Continuous
 62
     7
370
    15
100
AcDbLine
 10
663.1936962445
 20
-333.8637875145
 30
0.0
 11
663.1936962445
 21
-335.8637876095
 31
0.0
  0
LINE
  5
294
330
1F
100
AcDbEntity
  8
0
  6
Continuous
 62
     7
370
    15
100
AcDbLine
 10
723.193639024
 20
-335.8637876095
 30
0.0
 11
723.193639024
 21
-333.8637875145
 31
0.0
  0
LINE
  5
295
330
1F
100
AcDbEntity
  8
0
  6
Continuous
 62
     7
370
    15
100
AcDbLine
 10
663.1936962445
 20
-335.8637876095
 30
0.0
 11
678.1936819393
 21
-337.8637877045
 31
0.0
  0
LINE
  5
296
330
1F
100
AcDbEntity
  8
0
  6
Continuous
 62
     7
370
    15
100
AcDbLine
 10
708.1936533291
 20
-337.8637877045
 30
0.0
 11
723.193639024
 21
-335.8637876095
 31
0.0
  0
LINE
  5
297
330
1F
100
AcDbEntity
  8
0
  6
Continuous
 62
     7
370
    15
100
AcDbLine
 10
1276.527040704
 20
-333.8637875145
 30
0.0
 11
1276.527040704
 21
-335.8637876095
 31
0.0
  0
LINE
  5
298
330
1F
100
AcDbEntity
  8
0
  6
Continuous
 62
     7
370
    15
100
AcDbLine
 10
1336.5269834835
 20
-335.8637876095
 30
0.0
 11
1336.5269834835
 21
-333.8637875145
 31
0.0
  0
LINE
  5
299
330
1F
100
AcDbEntity
  8
0
  6
Continuous
 62
     7
370
    15
100
AcDbLine
 10
1276.527040704
 20
-335.8637876095
 30
0.0
 11
1291.5270263989
 21
-337.8637877045
 31
0.0
  0
LINE
  5
29A
330
1F
100
AcDbEntity
  8
0
  6
Continuous
 62
     7
370
    15
100
AcDbLine
 10
1321.5269977886
 20
-337.8637877045
 30
0.0
 11
1336.5269834835
 21
-335.8637876095
 31
0.0
  0
LINE
  5
29B
330
1F
100
AcDbEntity
  8
0
  6
Continuous
 62
     7
370
    15
100
AcDbLine
 10
-563.472901405
 20
-333.8637875145
 30
0.0
 11
-563.472901405
 21
-335.8637876095
 31
0.0
  0
LINE
  5
29C
330
1F
100
AcDbEntity
  8
0
  6
Continuous
 62
     7
370
    15
100
AcDbLine
 10
-503.4729027461
 20
-335.8637876095
 30
0.0
 11
-503.4729027461
 21
-333.8637875145
 31
0.0
  0
LINE
  5
29D
330
1F
100
AcDbEntity
  8
0
  6
Continuous
 62
     7
370
    15
100
AcDbLine
 10
-563.472901405
 20
-335.8637876095
 30
0.0
 11
-548.4729017403
 21
-337.8637877045
 31
0.0
  0
LINE
  5
29E
330
1F
100
AcDbEntity
  8
0
  6
Continuous
 62
     7
370
    15
100
AcDbLine
 10
-518.4729024108
 20
-337.8637877045
 30
0.0
 11
-503.4729027461
 21
-335.8637876095
 31
0.0
  0
LINE
  5
29F
330
1F
100
AcDbEntity
  8
0
  6
Continuous
 62
     7
370
    15
100
AcDbLine
 10
49.8604113896
 20
-333.8637875145
 30
0.0
 11
49.8604113896
 21
-335.8637876095
 31
0.0
  0
LINE
  5
2A0
330
1F
100
AcDbEntity
  8
0
  6
Continuous
 62
     7
370
    15
100
AcDbLine
 10
109.8604137738
 20
-335.8637876095
 30
0.0
 11
109.8604137738
 21
-333.8637875145
 31
0.0
  0
LINE
  5
2A1
330
1F
100
AcDbEntity
  8
0
  6
Continuous
 62
     7
370
    15
100
AcDbLine
 10
49.8604113896
 20
-335.8637876095
 30
0.0
 11
64.8603970845
 21
-337.8637877045
 31
0.0
  0
LINE
  5
2A2
330
1F
100
AcDbEntity
  8
0
  6
Continuous
 62
     7
370
    15
100
AcDbLine
 10
94.8603684742
 20
-337.8637877045
 30
0.0
 11
109.8604137738
 21
-335.8637876095
 31
0.0
  0
LINE
  5
2A3
330
1F
100
AcDbEntity
  8
0
  6
Continuous
 62
     7
370
    15
100
AcDbLine
 10
1436.5271265347
 20
-380.8637859052
 30
0.0
 11
1436.5271265347
 21
-355.8637873953
 31
0.0
  0
LINE
  5
2A4
330
1F
100
AcDbEntity
  8
0
  6
Continuous
 62
     7
370
    15
100
AcDbLine
 10
-663.4728973072
 20
-380.8637859052
 30
0.0
 11
-663.4728973072
 21
-355.8637873953
 31
0.0
  0
LWPOLYLINE
  5
2A5
330
1F
100
AcDbEntity
  8
0
  6
Continuous
 62
     7
370
    15
100
AcDbPolyline
 90
       13
 70
   128
 43
0.0
 10
1299.0090782482
 20
-380.8446826165
 10
1299.2464239437
 20
-380.7030135518
 10
1300.1029426892
 20
-380.2177721387
 10
1301.6060526211
 20
-379.4752062982
 10
1303.8700754483
 20
-378.6743135875
 10
1305.9498007138
 20
-378.3428037291
 10
1308.1046278317
 20
-378.4502187496
 10
1309.9871809323
 20
-378.9098636931
 10
1311.811321481
 20
-379.6407805508
 10
1313.347810014
 20
-380.4372923201
 10
1314.0466148693
 20
-380.8454127734
 10
1314.0771324475
 20
-380.8637859052
 10
1314.0771324475
 20
-380.8637859052
  0
LWPOLYLINE
  5
2A6
330
1F
100
AcDbEntity
  8
0
  6
Continuous
 62
     7
370
    15
100
AcDbPolyline
 90
       13
 70
   128
 43
0.0
 10
72.0090801556
 20
-380.8446826165
 10
72.2463662464
 20
-380.7030135518
 10
73.1029445965
 20
-380.2177721387
 10
74.6061141331
 20
-379.4752062982
 10
76.8701369602
 20
-378.6743135875
 10
78.9498026211
 20
-378.3428037291
 10
81.104629739
 20
-378.4502187496
 10
82.9871828396
 20
-378.9098636931
 10
84.8113233883
 20
-379.6407805508
 10
86.3478119213
 20
-380.4372923201
 10
87.0466167767
 20
-380.8454127734
 10
87.0770747502
 20
-380.8637859052
 10
87.0770747502
 20
-380.8637859052
  0
SPLINE
  5
2A7
330
1F
100
AcDbEntity
  8
0
  6
Continuous
 62
     7
370
    15
100
AcDbSpline
210
0.0
220
0.0
230
1.0
 70
     8
 71
     3
 72
    11
 73
     7
 74
     0
 42
0.000000001
 43
0.00000001
 40
0.0
 40
0.0
 40
0.0
 40
0.0
 40
0.2307236924287236
 40
0.4822370465912988
 40
0.7600031877340504
 40
1.0
 40
1.0
 40
1.0
 40
1.0
 10
-540.9909434888274
 20
-380.8446826165397
 30
0.0
 10
-540.9510140474152
 20
-380.8194673869248
 30
0.0
 10
-540.8675572697606
 20
-380.7667648762697
 30
0.0
 10
-539.9269107608471
 20
-380.2291479612741
 30
0.0
 10
-538.5733250307159
 20
-379.4922212552205
 30
0.0
 10
-537.2697337285595
 20
-379.0628255568529
 30
0.0
 10
-536.6654847088963
 20
-378.863789302655
 30
0.0
  0
SPLINE
  5
2A8
330
1F
100
AcDbEntity
  8
0
  6
Continuous
 62
     7
370
    15
100
AcDbSpline
210
0.0
220
0.0
230
1.0
 70
     8
 71
     3
 72
    14
 73
    10
 74
     0
 42
0.000000001
 43
0.00000001
 40
0.0
 40
0.0
 40
0.0
 40
0.0
 40
0.0700002869423393
 40
0.2282574341143565
 40
0.3783912061459495
 40
0.5515643063310435
 40
0.753858365975351
 40
0.9503468045896517
 40
1.0
 40
1.0
 40
1.0
 40
1.0
 10
-534.9729020885885
 20
-378.4898856406887
 30
0.0
 10
-534.667823791858
 20
-378.4321360072447
 30
0.0
 10
-533.6730223095008
 20
-378.2438255912915
 30
0.0
 10
-531.8924870512511
 20
-378.3928887896313
 30
0.0
 10
-529.8702355078424
 20
-378.903566759925
 30
0.0
 10
-528.0085824433172
 20
-379.6926113407666
 30
0.0
 10
-526.5337284121863
 20
-380.4931423670961
 30
0.0
 10
-525.9604892302441
 20
-380.8412232288712
 30
0.0
 10
-525.9292114146652
 20
-380.8599984523183
 30
0.0
 10
-525.9229018624634
 20
-380.8637859051902
 30
0.0
  0
LWPOLYLINE
  5
2A9
330
1F
100
AcDbEntity
  8
0
  6
Continuous
 62
     7
370
    15
100
AcDbPolyline
 90
       13
 70
   128
 43
0.0
 10
686.0090429623
 20
-380.8446826165
 10
686.2463886578
 20
-380.7030135518
 10
687.1030266125
 20
-380.2177721387
 10
688.6061365444
 20
-379.4752062982
 10
690.8701593716
 20
-378.6743135875
 10
692.9497654278
 20
-378.3428037291
 10
695.1045925457
 20
-378.4502187496
 10
696.9871456463
 20
-378.9098636931
 10
698.811286195
 20
-379.6407805508
 10
700.347774728
 20
-380.4372923201
 10
701.0465795834
 20
-380.8454127734
 10
701.0770971615
 20
-380.8637859052
 10
701.0770971615
 20
-380.8637859052
  0
LINE
  5
2AA
330
1F
100
AcDbEntity
  8
0
  6
Continuous
 62
     7
370
    15
100
AcDbLine
 10
685.7436830838
 20
-380.8637859052
 30
0.0
 11
700.6436521847
 21
-380.8637859052
 31
0.0
  0
LINE
  5
2AB
330
1F
100
AcDbEntity
  8
0
  6
Continuous
 62
     7
370
    15
100
AcDbLine
 10
699.643724664
 20
-381.8637879317
 30
0.0
 11
686.7437298138
 21
-381.8637879317
 31
0.0
  0
LINE
  5
2AC
330
1F
100
AcDbEntity
  8
0
  6
Continuous
 62
     7
370
    15
100
AcDbLine
 10
-540.9229019928
 20
-380.8637859052
 30
0.0
 11
-526.0229021583
 21
-380.8637859052
 31
0.0
  0
LINE
  5
2AD
330
1F
100
AcDbEntity
  8
0
  6
Continuous
 62
     7
370
    15
100
AcDbLine
 10
-527.0229018565
 20
-381.8637879317
 30
0.0
 11
-539.9229022946
 21
-381.8637879317
 31
0.0
  0
LINE
  5
2AE
330
1F
100
AcDbEntity
  8
0
  6
Continuous
 62
     7
370
    15
100
AcDbLine
 10
72.4103982289
 20
-380.8637859052
 30
0.0
 11
87.3104269345
 21
-380.8637859052
 31
0.0
  0
LINE
  5
2AF
330
1F
100
AcDbEntity
  8
0
  6
Continuous
 62
     7
370
    15
100
AcDbLine
 10
86.3103802044
 20
-381.8637879317
 30
0.0
 11
73.4103853543
 21
-381.8637879317
 31
0.0
  0
LINE
  5
2B0
330
1F
100
AcDbEntity
  8
0
  6
Continuous
 62
     7
370
    15
100
AcDbLine
 10
1299.0770275433
 20
-380.8637859052
 30
0.0
 11
1313.9769966442
 21
-380.8637859052
 31
0.0
  0
LINE
  5
2B1
330
1F
100
AcDbEntity
  8
0
  6
Continuous
 62
     7
370
    15
100
AcDbLine
 10
1312.9769499142
 20
-381.8637879317
 30
0.0
 11
1300.076955064
 21
-381.8637879317
 31
0.0
  0
LINE
  5
2B2
330
1F
100
AcDbEntity
  8
0
  6
Continuous
 62
     7
370
    15
100
AcDbLine
 10
286.5270907719
 20
-391.8637858456
 30
0.0
 11
199.5270783741
 21
-391.8637858456
 31
0.0
  0
LINE
  5
2B3
330
1F
100
AcDbEntity
  8
0
  6
Continuous
 62
     7
370
    15
100
AcDbLine
 10
174.527102216
 20
-391.8637858456
 30
0.0
 11
-551.4729013007
 21
-391.8637858456
 31
0.0
  0
LINE
  5
2B4
330
1F
100
AcDbEntity
  8
0
  6
Continuous
 62
     7
370
    15
100
AcDbLine
 10
-576.4729035359
 20
-391.8637858456
 30
0.0
 11
-579.472902165
 21
-391.8637858456
 31
0.0
  0
LINE
  5
2B5
330
1F
100
AcDbEntity
  8
0
  6
Continuous
 62
     7
370
    15
100
AcDbLine
 10
-619.4729049962
 20
-391.8637858456
 30
0.0
 11
-663.4728973072
 21
-391.8637858456
 31
0.0
  0
LINE
  5
2B6
330
1F
100
AcDbEntity
  8
0
  6
Continuous
 62
     7
370
    15
100
AcDbLine
 10
-579.472902165
 20
-385.8637885874
 30
0.0
 11
-578.9729011517
 21
-385.8637885874
 31
0.0
  0
LINE
  5
2B7
330
1F
100
AcDbEntity
  8
0
  6
Continuous
 62
     7
370
    15
100
AcDbLine
 10
-548.9729018222
 20
-385.8637885874
 30
0.0
 11
-532.9729020518
 21
-385.8637885874
 31
0.0
  0
ARC
  5
2B8
330
1F
100
AcDbEntity
  8
0
  6
Continuous
 62
     7
370
    15
100
AcDbCircle
 10
-532.9729020755
 20
-370.3637875145
 30
0.0
 40
15.5
100
AcDbArc
 50
270.0
 51
317.3576900201
  0
LINE
  5
2B9
330
1F
100
AcDbEntity
  8
0
  6
Continuous
 62
     7
370
    15
100
AcDbLine
 10
-540.9729019079
 20
-354.8637872314
 30
0.0
 11
-556.5924224715
 21
-354.8637872314
 31
0.0
  0
LINE
  5
2BA
330
1F
100
AcDbEntity
  8
0
  6
Continuous
 62
     7
370
    15
100
AcDbLine
 10
-571.353382365
 20
-354.8637872314
 30
0.0
 11
-583.4729028206
 21
-354.8637872314
 31
0.0
  0
ARC
  5
2BB
330
1F
100
AcDbEntity
  8
0
  6
Continuous
 62
     7
370
    15
100
AcDbCircle
 10
156.0270979245
 20
-370.3637875145
 30
0.0
 40
15.50000000000006
100
AcDbArc
 50
90.0
 51
110.6935412312
  0
ARC
  5
2BC
330
1F
100
AcDbEntity
  8
0
  6
Continuous
 62
     7
370
    15
100
AcDbCircle
 10
156.0270979245
 20
-370.3637875145
 30
0.0
 40
15.49999999999996
100
AcDbArc
 50
222.6423099799
 51
270.0
  0
LINE
  5
2BD
330
1F
100
AcDbEntity
  8
0
  6
Continuous
 62
     7
370
    15
100
AcDbLine
 10
156.0270721752
 20
-385.8637885874
 30
0.0
 11
172.0271046002
 21
-385.8637885874
 31
0.0
  0
LINE
  5
2BE
330
1F
100
AcDbEntity
  8
0
  6
Continuous
 62
     7
370
    15
100
AcDbLine
 10
202.0270759899
 20
-385.8637885874
 30
0.0
 11
217.0271212895
 21
-385.8637885874
 31
0.0
  0
ARC
  5
2BF
330
1F
100
AcDbEntity
  8
0
  6
Continuous
 62
     7
370
    15
100
AcDbCircle
 10
217.0270979244
 20
-370.3637875145
 30
0.0
 40
15.5
100
AcDbArc
 50
270.0
 51
317.3576900201
  0
ARC
  5
2C0
330
1F
100
AcDbEntity
  8
0
  6
Continuous
 62
     7
370
    15
100
AcDbCircle
 10
217.0270979244
 20
-370.3637875145
 30
0.0
 40
15.5
100
AcDbArc
 50
69.3064587688
 51
90.0
  0
LINE
  5
2C1
330
1F
100
AcDbEntity
  8
0
  6
Continuous
 62
     7
370
    15
100
AcDbLine
 10
217.0271212895
 20
-354.8637872314
 30
0.0
 11
194.4075758297
 21
-354.8637872314
 31
0.0
  0
LINE
  5
2C2
330
1F
100
AcDbEntity
  8
0
  6
Continuous
 62
     7
370
    15
100
AcDbLine
 10
179.6466047604
 20
-354.8637872314
 30
0.0
 11
156.0270721752
 21
-354.8637872314
 31
0.0
  0
LINE
  5
2C3
330
1F
100
AcDbEntity
  8
0
  6
Continuous
 62
     7
370
    15
100
AcDbLine
 10
286.5270907719
 20
-391.8637858456
 30
0.0
 11
286.5270907719
 21
-380.8637859052
 31
0.0
  0
LINE
  5
2C4
330
1F
100
AcDbEntity
  8
0
  6
Continuous
 62
     7
370
    15
100
AcDbLine
 10
286.5270907719
 20
-355.8637873953
 30
0.0
 11
286.5270907719
 21
-351.8637867397
 31
0.0
  0
LINE
  5
2C5
330
1F
100
AcDbEntity
  8
0
  6
Continuous
 62
     7
370
    15
100
AcDbLine
 10
286.5270907719
 20
-351.8637867397
 30
0.0
 11
87.3603756268
 21
-351.8637867397
 31
0.0
  0
LINE
  5
2C6
330
1F
100
AcDbEntity
  8
0
  6
Continuous
 62
     7
370
    15
100
AcDbLine
 10
72.3603899319
 20
-351.8637867397
 30
0.0
 11
-525.9729022432
 21
-351.8637867397
 31
0.0
  0
LINE
  5
2C7
330
1F
100
AcDbEntity
  8
0
  6
Continuous
 62
     7
370
    15
100
AcDbLine
 10
-540.9729019079
 20
-351.8637867397
 30
0.0
 11
-663.4728973072
 21
-351.8637867397
 31
0.0
  0
LINE
  5
2C8
330
1F
100
AcDbEntity
  8
0
  6
Continuous
 62
     7
370
    15
100
AcDbLine
 10
-663.4728973072
 20
-391.8637858456
 30
0.0
 11
-663.4728973072
 21
-380.8637859052
 31
0.0
  0
LINE
  5
2C9
330
1F
100
AcDbEntity
  8
0
  6
Continuous
 62
     7
370
    15
100
AcDbLine
 10
-663.4728973072
 20
-355.8637873953
 30
0.0
 11
-663.4728973072
 21
-351.8637867397
 31
0.0
  0
LINE
  5
2CA
330
1F
100
AcDbEntity
  8
0
  6
Continuous
 62
     7
370
    15
100
AcDbLine
 10
-549.5032062094
 20
-357.3637867099
 30
0.0
 11
-578.7729014914
 21
-357.3637867099
 31
0.0
  0
LINE
  5
2CB
330
1F
100
AcDbEntity
  8
0
  6
Continuous
 62
     7
370
    15
100
AcDbLine
 10
-549.1729014825
 20
-357.3637867099
 30
0.0
 11
-549.5032062094
 21
-357.3637867099
 31
0.0
  0
LINE
  5
2CC
330
1F
100
AcDbEntity
  8
0
  6
Continuous
 62
     7
370
    15
100
AcDbLine
 10
-566.598742203
 20
-354.5049411928
 30
0.0
 11
-565.9092878263
 21
-354.5049411928
 31
0.0
  0
SPLINE
  5
2CD
330
1F
100
AcDbEntity
  8
0
  6
Continuous
 62
     7
370
    15
100
AcDbSpline
210
0.0
220
0.0
230
1.0
 70
     8
 71
     3
 72
     9
 73
     5
 74
     0
 42
0.000000001
 43
0.00000001
 40
0.0
 40
0.0
 40
0.0
 40
0.0
 40
0.4999998644767683
 40
1.0
 40
1.0
 40
1.0
 40
1.0
 10
-565.9092878263206
 20
-354.5049411928136
 30
0.0
 10
-565.4389003236391
 20
-354.4934635754781
 30
0.0
 10
-564.4981250632824
 20
-354.470508334585
 30
0.0
 10
-563.5573505679068
 20
-354.4934635713301
 30
0.0
 10
-563.0869631927222
 20
-354.5049411928136
 30
0.0
  0
LINE
  5
2CE
330
1F
100
AcDbEntity
  8
0
  6
Continuous
 62
     7
370
    15
100
AcDbLine
 10
-563.0869631927
 20
-354.5049411928
 30
0.0
 11
-561.150575922
 21
-354.5049411928
 31
0.0
  0
LINE
  5
2CF
330
1F
100
AcDbEntity
  8
0
  6
Continuous
 62
     7
370
    15
100
AcDbLine
 10
-561.150575922
 20
-354.5049411928
 30
0.0
 11
-561.3462169926
 21
-354.5049411928
 31
0.0
  0
LINE
  5
2D0
330
1F
100
AcDbEntity
  8
0
  6
Continuous
 62
     7
370
    15
100
AcDbLine
 10
201.4967734654
 20
-357.3637867099
 30
0.0
 11
172.2270781834
 21
-357.3637867099
 31
0.0
  0
LINE
  5
2D1
330
1F
100
AcDbEntity
  8
0
  6
Continuous
 62
     7
370
    15
100
AcDbLine
 10
201.8271024067
 20
-357.3637867099
 30
0.0
 11
201.4967734654
 21
-357.3637867099
 31
0.0
  0
LINE
  5
2D2
330
1F
100
AcDbEntity
  8
0
  6
Continuous
 62
     7
370
    15
100
AcDbLine
 10
184.4012672741
 20
-354.5049411928
 30
0.0
 11
185.0907142002
 21
-354.5049411928
 31
0.0
  0
SPLINE
  5
2D3
330
1F
100
AcDbEntity
  8
0
  6
Continuous
 62
     7
370
    15
100
AcDbSpline
210
0.0
220
0.0
230
1.0
 70
     8
 71
     3
 72
     9
 73
     5
 74
     0
 42
0.000000001
 43
0.00000001
 40
0.0
 40
0.0
 40
0.0
 40
0.0
 40
0.4999897736512713
 40
1.0
 40
1.0
 40
1.0
 40
1.0
 10
185.0907142002374
 20
-354.5049411928136
 30
0.0
 10
185.5610940319139
 20
-354.4934637298998
 30
0.0
 10
186.5018729367333
 20
-354.4705083345722
 30
0.0
 10
187.4426537217407
 20
-354.493463416902
 30
0.0
 10
187.9130537349969
 20
-354.5049411928136
 30
0.0
  0
LINE
  5
2D4
330
1F
100
AcDbEntity
  8
0
  6
Continuous
 62
     7
370
    15
100
AcDbLine
 10
187.913053735
 20
-354.5049411928
 30
0.0
 11
189.8494298298
 21
-354.5049411928
 31
0.0
  0
LINE
  5
2D5
330
1F
100
AcDbEntity
  8
0
  6
Continuous
 62
     7
370
    15
100
AcDbLine
 10
189.8494298298
 20
-354.5049411928
 30
0.0
 11
189.6538073857
 21
-354.5049411928
 31
0.0
  0
LINE
  5
2D6
330
1F
100
AcDbEntity
  8
0
  6
Continuous
 62
     7
370
    15
100
AcDbLine
 10
161.6119677861
 20
-377.3637862628
 30
0.0
 11
216.0270745594
 21
-377.3637862628
 31
0.0
  0
LINE
  5
2D7
330
1F
100
AcDbEntity
  8
0
  6
Continuous
 62
     7
370
    15
100
AcDbLine
 10
158.0271060307
 20
-377.3637862628
 30
0.0
 11
161.6119677861
 21
-377.3637862628
 31
0.0
  0
LINE
  5
2D8
330
1F
100
AcDbEntity
  8
0
  6
Continuous
 62
     7
370
    15
100
AcDbLine
 10
161.6119677861
 20
-378.8637893027
 30
0.0
 11
216.0270745594
 21
-378.8637893027
 31
0.0
  0
LINE
  5
2D9
330
1F
100
AcDbEntity
  8
0
  6
Continuous
 62
     7
370
    15
100
AcDbLine
 10
158.0271060307
 20
-378.8637893027
 30
0.0
 11
161.6119677861
 21
-378.8637893027
 31
0.0
  0
LINE
  5
2DA
330
1F
100
AcDbEntity
  8
0
  6
Continuous
 62
     7
370
    15
100
AcDbLine
 10
-589.3880118888
 20
-378.8637893027
 30
0.0
 11
-534.9729020886
 21
-378.8637893027
 31
0.0
  0
LINE
  5
2DB
330
1F
100
AcDbEntity
  8
0
  6
Continuous
 62
     7
370
    15
100
AcDbLine
 10
-592.9729034465
 20
-378.8637893027
 30
0.0
 11
-589.3880118888
 21
-378.8637893027
 31
0.0
  0
LINE
  5
2DC
330
1F
100
AcDbEntity
  8
0
  6
Continuous
 62
     7
370
    15
100
AcDbLine
 10
-589.3880118888
 20
-377.3637862628
 30
0.0
 11
-534.9729020886
 21
-377.3637862628
 31
0.0
  0
LINE
  5
2DD
330
1F
100
AcDbEntity
  8
0
  6
Continuous
 62
     7
370
    15
100
AcDbLine
 10
-592.9729034465
 20
-377.3637862628
 30
0.0
 11
-589.3880118888
 21
-377.3637862628
 31
0.0
  0
LINE
  5
2DE
330
1F
100
AcDbEntity
  8
0
  6
Continuous
 62
     7
370
    15
100
AcDbLine
 10
216.0270745594
 20
-357.8637877231
 30
0.0
 11
158.0271060307
 21
-357.8637877231
 31
0.0
  0
LINE
  5
2DF
330
1F
100
AcDbEntity
  8
0
  6
Continuous
 62
     7
370
    15
100
AcDbLine
 10
216.0270745594
 20
-359.3637870377
 30
0.0
 11
158.0271060307
 21
-359.3637870377
 31
0.0
  0
LINE
  5
2E0
330
1F
100
AcDbEntity
  8
0
  6
Continuous
 62
     7
370
    15
100
AcDbLine
 10
-534.9729020886
 20
-357.8637877231
 30
0.0
 11
-592.9729034465
 21
-357.8637877231
 31
0.0
  0
LINE
  5
2E1
330
1F
100
AcDbEntity
  8
0
  6
Continuous
 62
     7
370
    15
100
AcDbLine
 10
-534.9729020886
 20
-359.3637870377
 30
0.0
 11
-592.9729034465
 21
-359.3637870377
 31
0.0
  0
LINE
  5
2E2
330
1F
100
AcDbEntity
  8
0
  6
Continuous
 62
     7
370
    15
100
AcDbLine
 10
161.060267194
 20
-359.3637870377
 30
0.0
 11
216.0270745594
 21
-359.3637870377
 31
0.0
  0
LINE
  5
2E3
330
1F
100
AcDbEntity
  8
0
  6
Continuous
 62
     7
370
    15
100
AcDbLine
 10
158.0271060307
 20
-359.3637870377
 30
0.0
 11
161.060267194
 21
-359.3637870377
 31
0.0
  0
LINE
  5
2E4
330
1F
100
AcDbEntity
  8
0
  6
Continuous
 62
     7
370
    15
100
AcDbLine
 10
158.0271060307
 20
-360.3842166936
 30
0.0
 11
216.0270745594
 21
-360.3842166936
 31
0.0
  0
LINE
  5
2E5
330
1F
100
AcDbEntity
  8
0
  6
Continuous
 62
     7
370
    15
100
AcDbLine
 10
161.060267194
 20
-376.3954603797
 30
0.0
 11
158.0271060307
 21
-376.3954603797
 31
0.0
  0
LINE
  5
2E6
330
1F
100
AcDbEntity
  8
0
  6
Continuous
 62
     7
370
    15
100
AcDbLine
 10
216.0270745594
 20
-376.3954603797
 30
0.0
 11
161.060267194
 21
-376.3954603797
 31
0.0
  0
LINE
  5
2E7
330
1F
100
AcDbEntity
  8
0
  6
Continuous
 62
     7
370
    15
100
AcDbLine
 10
161.060267194
 20
-377.3637862628
 30
0.0
 11
216.0270745594
 21
-377.3637862628
 31
0.0
  0
LINE
  5
2E8
330
1F
100
AcDbEntity
  8
0
  6
Continuous
 62
     7
370
    15
100
AcDbLine
 10
158.0271060307
 20
-377.3637862628
 30
0.0
 11
161.060267194
 21
-377.3637862628
 31
0.0
  0
LINE
  5
2E9
330
1F
100
AcDbEntity
  8
0
  6
Continuous
 62
     7
370
    15
100
AcDbLine
 10
-589.9397460084
 20
-359.3637870377
 30
0.0
 11
-534.9729020886
 21
-359.3637870377
 31
0.0
  0
LINE
  5
2EA
330
1F
100
AcDbEntity
  8
0
  6
Continuous
 62
     7
370
    15
100
AcDbLine
 10
-592.9729034465
 20
-359.3637870377
 30
0.0
 11
-589.9397460084
 21
-359.3637870377
 31
0.0
  0
LINE
  5
2EB
330
1F
100
AcDbEntity
  8
0
  6
Continuous
 62
     7
370
    15
100
AcDbLine
 10
-592.9729034465
 20
-360.3842166936
 30
0.0
 11
-534.9729020886
 21
-360.3842166936
 31
0.0
  0
LINE
  5
2EC
330
1F
100
AcDbEntity
  8
0
  6
Continuous
 62
     7
370
    15
100
AcDbLine
 10
-589.9397460084
 20
-376.3954603797
 30
0.0
 11
-592.9729034465
 21
-376.3954603797
 31
0.0
  0
LINE
  5
2ED
330
1F
100
AcDbEntity
  8
0
  6
Continuous
 62
     7
370
    15
100
AcDbLine
 10
-534.9729020886
 20
-376.3954603797
 30
0.0
 11
-589.9397460084
 21
-376.3954603797
 31
0.0
  0
LINE
  5
2EE
330
1F
100
AcDbEntity
  8
0
  6
Continuous
 62
     7
370
    15
100
AcDbLine
 10
-589.9397460084
 20
-377.3637862628
 30
0.0
 11
-534.9729020886
 21
-377.3637862628
 31
0.0
  0
LINE
  5
2EF
330
1F
100
AcDbEntity
  8
0
  6
Continuous
 62
     7
370
    15
100
AcDbLine
 10
-592.9729034465
 20
-377.3637862628
 30
0.0
 11
-589.9397460084
 21
-377.3637862628
 31
0.0
  0
LINE
  5
2F0
330
1F
100
AcDbEntity
  8
0
  6
Continuous
 62
     7
370
    15
100
AcDbLine
 10
-579.472902165
 20
-385.3637875741
 30
0.0
 11
-578.9729011517
 21
-385.3637875741
 31
0.0
  0
LINE
  5
2F1
330
1F
100
AcDbEntity
  8
0
  6
Continuous
 62
     7
370
    15
100
AcDbLine
 10
-548.9729018222
 20
-385.3637875741
 30
0.0
 11
-533.9729020993
 21
-385.3637875741
 31
0.0
  0
LINE
  5
2F2
330
1F
100
AcDbEntity
  8
0
  6
Continuous
 62
     7
370
    15
100
AcDbLine
 10
-540.9729019079
 20
-355.3637882447
 30
0.0
 11
-548.9729018222
 21
-355.3637882447
 31
0.0
  0
LINE
  5
2F3
330
1F
100
AcDbEntity
  8
0
  6
Continuous
 62
     7
370
    15
100
AcDbLine
 10
-578.9729011517
 20
-355.3637882447
 30
0.0
 11
-583.4729028206
 21
-355.3637882447
 31
0.0
  0
ARC
  5
2F4
330
1F
100
AcDbEntity
  8
0
  6
Continuous
 62
     7
370
    15
100
AcDbCircle
 10
-533.9729020755
 20
-370.3637875145
 30
0.0
 40
15.0
100
AcDbArc
 50
270.0
 51
315.5729959992
  0
LINE
  5
2F5
330
1F
100
AcDbEntity
  8
0
  6
Continuous
 62
     7
370
    15
100
AcDbLine
 10
157.0271189053
 20
-385.3637875741
 30
0.0
 11
172.0271046002
 21
-385.3637875741
 31
0.0
  0
LINE
  5
2F6
330
1F
100
AcDbEntity
  8
0
  6
Continuous
 62
     7
370
    15
100
AcDbLine
 10
202.0270759899
 20
-385.3637875741
 30
0.0
 11
217.0271212895
 21
-385.3637875741
 31
0.0
  0
LWPOLYLINE
  5
2F7
330
1F
100
AcDbEntity
  8
0
  6
Continuous
 62
     7
370
    15
100
AcDbPolyline
 90
        3
 70
   128
 43
0.0
 10
157.0271189053
 20
-355.3637882447
 10
154.6806032498
 20
-355.5484620606
 10
153.1865532238
 20
-355.8637873953
  0
ARC
  5
2F8
330
1F
100
AcDbEntity
  8
0
  6
Continuous
 62
     7
370
    15
100
AcDbCircle
 10
157.0270979244
 20
-370.3637875145
 30
0.0
 40
15.00000000000002
100
AcDbArc
 50
224.4270040008
 51
270.0
  0
LINE
  5
2F9
330
1F
100
AcDbEntity
  8
0
  6
Continuous
 62
     7
370
    15
100
AcDbLine
 10
217.0271212895
 20
-355.3637882447
 30
0.0
 11
202.0270759899
 21
-355.3637882447
 31
0.0
  0
LINE
  5
2FA
330
1F
100
AcDbEntity
  8
0
  6
Continuous
 62
     7
370
    15
100
AcDbLine
 10
172.0271046002
 20
-355.3637882447
 30
0.0
 11
157.0271189053
 21
-355.3637882447
 31
0.0
  0
ARC
  5
2FB
330
1F
100
AcDbEntity
  8
0
  6
Continuous
 62
     7
370
    15
100
AcDbCircle
 10
217.0270979244
 20
-370.3637875145
 30
0.0
 40
15.0
100
AcDbArc
 50
270.0
 51
315.5729959992
  0
LWPOLYLINE
  5
2FC
330
1F
100
AcDbEntity
  8
0
  6
Continuous
 62
     7
370
    15
100
AcDbPolyline
 90
        3
 70
   128
 43
0.0
 10
220.8676869709
 20
-355.8637873953
 10
219.373636945
 20
-355.5484620606
 10
217.0271212895
 20
-355.3637882447
  0
LINE
  5
2FD
330
1F
100
AcDbEntity
  8
0
  6
Continuous
 62
     7
370
    15
100
AcDbLine
 10
-548.9729018222
 20
-379.6637879437
 30
0.0
 11
-578.9729011517
 21
-379.6637879437
 31
0.0
  0
LINE
  5
2FE
330
1F
100
AcDbEntity
  8
0
  6
Continuous
 62
     7
370
    15
100
AcDbLine
 10
-578.9729011517
 20
-385.0637862211
 30
0.0
 11
-548.9729018222
 21
-385.0637862211
 31
0.0
  0
LINE
  5
2FF
330
1F
100
AcDbEntity
  8
0
  6
Continuous
 62
     7
370
    15
100
AcDbLine
 10
-578.6729035239
 20
-379.3637865906
 30
0.0
 11
-549.2729013126
 21
-379.3637865906
 31
0.0
  0
LINE
  5
300
330
1F
100
AcDbEntity
  8
0
  6
Continuous
 62
     7
370
    15
100
AcDbLine
 10
202.0270759899
 20
-379.6637879437
 30
0.0
 11
172.0271046002
 21
-379.6637879437
 31
0.0
  0
LINE
  5
301
330
1F
100
AcDbEntity
  8
0
  6
Continuous
 62
     7
370
    15
100
AcDbLine
 10
172.0271046002
 20
-385.0637862211
 30
0.0
 11
202.0270759899
 21
-385.0637862211
 31
0.0
  0
LINE
  5
302
330
1F
100
AcDbEntity
  8
0
  6
Continuous
 62
     7
370
    15
100
AcDbLine
 10
172.3270947773
 20
-379.3637865906
 30
0.0
 11
201.7270858128
 21
-379.3637865906
 31
0.0
  0
LINE
  5
303
330
1F
100
AcDbEntity
  8
0
  6
Continuous
 62
     7
370
    15
100
AcDbLine
 10
198.6833746273
 20
-355.3637882447
 30
0.0
 11
202.0270759899
 21
-355.3637882447
 31
0.0
  0
LINE
  5
304
330
1F
100
AcDbEntity
  8
0
  6
Continuous
 62
     7
370
    15
100
AcDbLine
 10
202.0270759899
 20
-355.3637882447
 30
0.0
 11
202.0270759899
 21
-355.8637873953
 31
0.0
  0
LINE
  5
305
330
1F
100
AcDbEntity
  8
0
  6
Continuous
 62
     7
370
    15
100
AcDbLine
 10
202.0270759899
 20
-385.0637862211
 30
0.0
 11
202.0270759899
 21
-385.3637875741
 31
0.0
  0
LINE
  5
306
330
1F
100
AcDbEntity
  8
0
  6
Continuous
 62
     7
370
    15
100
AcDbLine
 10
172.0271046002
 20
-385.3637875741
 30
0.0
 11
172.0271046002
 21
-385.0637862211
 31
0.0
  0
LINE
  5
307
330
1F
100
AcDbEntity
  8
0
  6
Continuous
 62
     7
370
    15
100
AcDbLine
 10
172.0271046002
 20
-355.8637873953
 30
0.0
 11
172.0271046002
 21
-355.3637882447
 31
0.0
  0
LINE
  5
308
330
1F
100
AcDbEntity
  8
0
  6
Continuous
 62
     7
370
    15
100
AcDbLine
 10
172.0271046002
 20
-355.3637882447
 30
0.0
 11
175.3708059628
 21
-355.3637882447
 31
0.0
  0
LINE
  5
309
330
1F
100
AcDbEntity
  8
0
  6
Continuous
 62
     7
370
    15
100
AcDbLine
 10
-552.3166218113
 20
-355.3637882447
 30
0.0
 11
-548.9729018222
 21
-355.3637882447
 31
0.0
  0
LINE
  5
30A
330
1F
100
AcDbEntity
  8
0
  6
Continuous
 62
     7
370
    15
100
AcDbLine
 10
-578.9729011517
 20
-385.3637875741
 30
0.0
 11
-578.9729011517
 21
-380.8637859052
 31
0.0
  0
LINE
  5
30B
330
1F
100
AcDbEntity
  8
0
  6
Continuous
 62
     7
370
    15
100
AcDbLine
 10
-578.9729011517
 20
-355.8637873953
 30
0.0
 11
-578.9729011517
 21
-355.3637882447
 31
0.0
  0
LINE
  5
30C
330
1F
100
AcDbEntity
  8
0
  6
Continuous
 62
     7
370
    15
100
AcDbLine
 10
-578.9729011517
 20
-355.3637882447
 30
0.0
 11
-575.6291811626
 21
-355.3637882447
 31
0.0
  0
LINE
  5
30D
330
1F
100
AcDbEntity
  8
0
  6
Continuous
 62
     7
370
    15
100
AcDbLine
 10
-548.9729018222
 20
-355.3637882447
 30
0.0
 11
-548.9729018222
 21
-355.8637873953
 31
0.0
  0
LINE
  5
30E
330
1F
100
AcDbEntity
  8
0
  6
Continuous
 62
     7
370
    15
100
AcDbLine
 10
-548.9729018222
 20
-380.8637859052
 30
0.0
 11
-548.9729018222
 21
-385.3637875741
 31
0.0
  0
LINE
  5
30F
330
1F
100
AcDbEntity
  8
0
  6
Continuous
 62
     7
370
    15
100
AcDbLine
 10
172.0271046002
 20
-385.3637875741
 30
0.0
 11
172.0271046002
 21
-391.3637885576
 31
0.0
  0
LINE
  5
310
330
1F
100
AcDbEntity
  8
0
  6
Continuous
 62
     7
370
    15
100
AcDbLine
 10
202.0270759899
 20
-385.3637875741
 30
0.0
 11
202.0270759899
 21
-391.3637885576
 31
0.0
  0
LINE
  5
311
330
1F
100
AcDbEntity
  8
0
  6
Continuous
 62
     7
370
    15
100
AcDbLine
 10
172.0271046002
 20
-391.3637885576
 30
0.0
 11
202.0270759899
 21
-391.3637885576
 31
0.0
  0
LINE
  5
312
330
1F
100
AcDbEntity
  8
0
  6
Continuous
 62
     7
370
    15
100
AcDbLine
 10
172.0271046002
 20
-385.3637875741
 30
0.0
 11
202.0270759899
 21
-385.3637875741
 31
0.0
  0
LINE
  5
313
330
1F
100
AcDbEntity
  8
0
  6
Continuous
 62
     7
370
    15
100
AcDbLine
 10
-578.9729011517
 20
-385.3637875741
 30
0.0
 11
-578.9729011517
 21
-391.3637885576
 31
0.0
  0
LINE
  5
314
330
1F
100
AcDbEntity
  8
0
  6
Continuous
 62
     7
370
    15
100
AcDbLine
 10
-548.9729018222
 20
-385.3637875741
 30
0.0
 11
-548.9729018222
 21
-391.3637885576
 31
0.0
  0
LINE
  5
315
330
1F
100
AcDbEntity
  8
0
  6
Continuous
 62
     7
370
    15
100
AcDbLine
 10
-578.9729011517
 20
-391.3637885576
 30
0.0
 11
-548.9729018222
 21
-391.3637885576
 31
0.0
  0
LINE
  5
316
330
1F
100
AcDbEntity
  8
0
  6
Continuous
 62
     7
370
    15
100
AcDbLine
 10
-578.9729011517
 20
-385.3637875741
 30
0.0
 11
-548.9729018222
 21
-385.3637875741
 31
0.0
  0
LINE
  5
317
330
1F
100
AcDbEntity
  8
0
  6
Continuous
 62
     7
370
    15
100
AcDbLine
 10
301.5270764668
 20
-385.8637885874
 30
0.0
 11
301.5270764668
 21
-380.8637859052
 31
0.0
  0
LINE
  5
318
330
1F
100
AcDbEntity
  8
0
  6
Continuous
 62
     7
370
    15
100
AcDbLine
 10
286.5270907719
 20
-385.8637885874
 30
0.0
 11
301.5270764668
 21
-385.8637885874
 31
0.0
  0
SPLINE
  5
319
330
1F
100
AcDbEntity
  8
0
  6
Continuous
 62
     7
370
    15
100
AcDbSpline
210
0.0
220
0.0
230
1.0
 70
     8
 71
     3
 72
     9
 73
     5
 74
     0
 42
0.000000001
 43
0.00000001
 40
0.0
 40
0.0
 40
0.0
 40
0.0
 40
0.1853563077768134
 40
1.0
 40
1.0
 40
1.0
 40
1.0
 10
1357.792132600048
 20
-395.8273345356662
 30
0.0
 10
1357.807497083215
 20
-395.8296395396504
 30
0.0
 10
1357.890388695327
 20
-395.842075069964
 30
0.0
 10
1357.974460433813
 20
-395.8230407810939
 30
0.0
 10
1358.042948945263
 20
-395.8075346177299
 30
0.0
  0
LINE
  5
31A
330
1F
100
AcDbEntity
  8
0
  6
Continuous
 62
     7
370
    15
100
AcDbLine
 10
1363.4185726483
 20
-395.8075346177
 30
0.0
 11
1363.2620508511
 21
-395.8273308104
 31
0.0
  0
SPLINE
  5
31B
330
1F
100
AcDbEntity
  8
0
  6
Continuous
 62
     7
370
    15
100
AcDbSpline
210
0.0
220
0.0
230
1.0
 70
     8
 71
     3
 72
     9
 73
     5
 74
     0
 42
0.000000001
 43
0.00000001
 40
0.0
 40
0.0
 40
0.0
 40
0.0
 40
0.4999987052023287
 40
1.0
 40
1.0
 40
1.0
 40
1.0
 10
1360.934489472607
 20
-395.8075346177299
 30
0.0
 10
1361.348801893988
 20
-395.8203514568749
 30
0.0
 10
1362.177428882557
 20
-395.8459852015457
 30
0.0
 10
1363.004857345461
 20
-395.8203515011288
 30
0.0
 10
1363.418572648266
 20
-395.8075346177299
 30
0.0
  0
SPLINE
  5
31C
330
1F
100
AcDbEntity
  8
0
  6
Continuous
 62
     7
370
    15
100
AcDbSpline
210
0.0
220
0.0
230
1.0
 70
     8
 71
     3
 72
     9
 73
     5
 74
     0
 42
0.000000001
 43
0.00000001
 40
0.0
 40
0.0
 40
0.0
 40
0.0
 40
0.5000061349031862
 40
1.0
 40
1.0
 40
1.0
 40
1.0
 10
1358.042948945263
 20
-395.8075346177299
 30
0.0
 10
1358.524690594464
 20
-395.8203515838433
 30
0.0
 10
1359.488162071257
 20
-395.8459852015506
 30
0.0
 10
1360.45238428243
 20
-395.8203513741628
 30
0.0
 10
1360.934489472607
 20
-395.8075346177299
 30
0.0
  0
SPLINE
  5
31D
330
1F
100
AcDbEntity
  8
0
  6
Continuous
 62
     7
370
    15
100
AcDbSpline
210
0.0
220
0.0
230
1.0
 70
     8
 71
     3
 72
     9
 73
     5
 74
     0
 42
0.000000001
 43
0.00000001
 40
0.0
 40
0.0
 40
0.0
 40
0.0
 40
0.1853562745398416
 40
1.0
 40
1.0
 40
1.0
 40
1.0
 10
-602.2078459422797
 20
-395.8273345356662
 30
0.0
 10
-602.1924839630077
 20
-395.8296395395461
 30
0.0
 10
-602.1096058445834
 20
-395.8420750715269
 30
0.0
 10
-602.0255458208579
 20
-395.8230407821441
 30
0.0
 10
-601.9570668499679
 20
-395.8075346177299
 30
0.0
  0
LINE
  5
31E
330
1F
100
AcDbEntity
  8
0
  6
Continuous
 62
     7
370
    15
100
AcDbLine
 10
-596.5813835423
 20
-395.8075346177
 30
0.0
 11
-596.7379202407
 21
-395.8273308104
 31
0.0
  0
SPLINE
  5
31F
330
1F
100
AcDbEntity
  8
0
  6
Continuous
 62
     7
370
    15
100
AcDbSpline
210
0.0
220
0.0
230
1.0
 70
     8
 71
     3
 72
     9
 73
     5
 74
     0
 42
0.000000001
 43
0.00000001
 40
0.0
 40
0.0
 40
0.0
 40
0.0
 40
0.499999654431701
 40
0.9999999999999999
 40
0.9999999999999999
 40
0.9999999999999999
 40
0.9999999999999999
 10
-599.0655486743659
 20
-395.8075346177299
 30
0.0
 10
-598.6512211235529
 20
-395.8203514730964
 30
0.0
 10
-597.8225654492124
 20
-395.8459852015455
 30
0.0
 10
-596.9951110352456
 20
-395.8203514849072
 30
0.0
 10
-596.5813835423202
 20
-395.8075346177299
 30
0.0
  0
SPLINE
  5
320
330
1F
100
AcDbEntity
  8
0
  6
Continuous
 62
     7
370
    15
100
AcDbSpline
210
0.0
220
0.0
230
1.0
 70
     8
 71
     3
 72
     9
 73
     5
 74
     0
 42
0.000000001
 43
0.00000001
 40
0.0
 40
0.0
 40
0.0
 40
0.0
 40
0.5000006406973072
 40
1.0
 40
1.0
 40
1.0
 40
1.0
 10
-601.9570668499679
 20
-395.8075346177299
 30
0.0
 10
-601.4753355901204
 20
-395.8203514899508
 30
0.0
 10
-600.5118743049998
 20
-395.8459852015455
 30
0.0
 10
-599.5476568060627
 20
-395.8203514680528
 30
0.0
 10
-599.0655486743659
 20
-395.8075346177299
 30
0.0
  0
LINE
  5
321
330
1F
100
AcDbEntity
  8
0
  6
Continuous
 62
     7
370
    15
100
AcDbLine
 10
1380.5271322567
 20
-384.9637882536
 30
0.0
 11
1340.5270511944
 21
-384.9637882536
 31
0.0
  0
LINE
  5
322
330
1F
100
AcDbEntity
  8
0
  6
Continuous
 62
     7
370
    15
100
AcDbLine
 10
1380.5271322567
 20
-392.9637858396
 30
0.0
 11
1340.5270511944
 21
-392.9637858396
 31
0.0
  0
LINE
  5
323
330
1F
100
AcDbEntity
  8
0
  6
Continuous
 62
     7
370
    15
100
AcDbLine
 10
-579.472902165
 20
-392.9637858396
 30
0.0
 11
-619.4729049962
 21
-392.9637858396
 31
0.0
  0
LINE
  5
324
330
1F
100
AcDbEntity
  8
0
  6
Continuous
 62
     7
370
    15
100
AcDbLine
 10
-579.472902165
 20
-384.9637882536
 30
0.0
 11
-619.4729049962
 21
-384.9637882536
 31
0.0
  0
LINE
  5
325
330
1F
100
AcDbEntity
  8
0
  6
Continuous
 62
     7
370
    15
100
AcDbLine
 10
1376.5270645458
 20
-354.1637884205
 30
0.0
 11
1344.5271189053
 21
-354.1637884205
 31
0.0
  0
LINE
  5
326
330
1F
100
AcDbEntity
  8
0
  6
Continuous
 62
     7
370
    15
100
AcDbLine
 10
1346.3270599682
 20
-352.3637877529
 30
0.0
 11
1374.7271234829
 21
-352.3637877529
 31
0.0
  0
SPLINE
  5
327
330
1F
100
AcDbEntity
  8
0
  6
Continuous
 62
     7
370
    15
100
AcDbSpline
210
0.0
220
0.0
230
1.0
 70
     8
 71
     3
 72
    22
 73
    18
 74
     0
 42
0.000000001
 43
0.00000001
 40
0.0
 40
0.0
 40
0.0
 40
0.0
 40
0.0424483201085554
 40
0.1226354464883156
 40
0.208911402906722
 40
0.3120076204318324
 40
0.3621945285776813
 40
0.4135787555155035
 40
0.482178074310383
 40
0.5511345427078843
 40
0.6347835545011871
 40
0.6944715666059718
 40
0.7558524979135594
 40
0.8161947523748085
 40
0.8787130723432369
 40
0.9629714423791867
 40
1.0
 40
1.0
 40
1.0
 40
1.0
 10
1376.426213486889
 20
-380.8354066436966
 30
0.0
 10
1376.446180655019
 20
-380.8608743949603
 30
0.0
 10
1376.503866861977
 20
-380.9344520781124
 30
0.0
 10
1375.787709869598
 20
-380.0211163390423
 30
0.0
 10
1374.455237158271
 20
-378.2378863277286
 30
0.0
 10
1372.94286470468
 20
-375.9971939848834
 30
0.0
 10
1371.730798165261
 20
-373.7546151266081
 30
0.0
 10
1370.859247665737
 20
-371.6897247213523
 30
0.0
 10
1370.270755479199
 20
-369.1181461028825
 30
0.0
 10
1370.513201830548
 20
-365.9841287663663
 30
0.0
 10
1371.545111129028
 20
-363.295162302989
 30
0.0
 10
1372.766983791847
 20
-361.062339192613
 30
0.0
 10
1373.8847334438
 20
-359.3280499792338
 30
0.0
 10
1374.940302963592
 20
-357.838941414069
 30
0.0
 10
1375.916421340196
 20
-356.5410350757835
 30
0.0
 10
1376.462520008777
 20
-355.8457735860086
 30
0.0
 10
1376.511968163421
 20
-355.7829633526337
 30
0.0
 10
1376.527064545849
 20
-355.7637875651796
 30
0.0
  0
SPLINE
  5
328
330
1F
100
AcDbEntity
  8
0
  6
Continuous
 62
     7
370
    15
100
AcDbSpline
210
0.0
220
0.0
230
1.0
 70
     8
 71
     3
 72
    22
 73
    18
 74
     0
 42
0.000000001
 43
0.00000001
 40
0.0
 40
0.0
 40
0.0
 40
0.0
 40
0.0870778584324622
 40
0.1738038483317863
 40
0.2313479115815546
 40
0.2905525721404234
 40
0.3488887554770947
 40
0.4089780055942647
 40
0.4779438633952308
 40
0.5473140922666806
 40
0.6291802611803989
 40
0.6881369865977015
 40
0.748757848806133
 40
0.8086820312245171
 40
0.8706630003302391
 40
0.9564113925533577
 40
1.0
 40
1.0
 40
1.0
 40
1.0
 10
1344.527118905285
 20
-355.7637875651796
 30
0.0
 10
1344.609753533154
 20
-355.8679257913331
 30
0.0
 10
1344.774688874784
 20
-356.0757814367261
 30
0.0
 10
1345.821355963475
 20
-357.4371506216303
 30
0.0
 10
1346.947864849954
 20
-359.0080391030897
 30
0.0
 10
1348.019068521958
 20
-360.6282505820814
 30
0.0
 10
1349.099333141196
 20
-362.5067786365686
 30
0.0
 10
1350.104414196703
 20
-364.7407761054056
 30
0.0
 10
1350.767626789001
 20
-367.421119270885
 30
0.0
 10
1350.585281410639
 20
-370.5492682300393
 30
0.0
 10
1349.598268773653
 20
-373.2368126629069
 30
0.0
 10
1348.407888803044
 20
-375.4623485239551
 30
0.0
 10
1347.300976992552
 20
-377.2052483490358
 30
0.0
 10
1346.236248298633
 20
-378.7209087502279
 30
0.0
 10
1345.241873220121
 20
-380.0524545326895
 30
0.0
 10
1344.553287868644
 20
-380.9307394099415
 30
0.0
 10
1344.609145172459
 20
-380.8594367604268
 30
0.0
 10
1344.627969964245
 20
-380.8354066436966
 30
0.0
  0
LINE
  5
329
330
1F
100
AcDbEntity
  8
0
  6
Continuous
 62
     7
370
    15
100
AcDbLine
 10
-583.4729028206
 20
-354.1637884205
 30
0.0
 11
-615.4729043405
 21
-354.1637884205
 31
0.0
  0
LINE
  5
32A
330
1F
100
AcDbEntity
  8
0
  6
Continuous
 62
     7
370
    15
100
AcDbLine
 10
-613.672903673
 20
-352.3637877529
 30
0.0
 11
-585.2729034882
 21
-352.3637877529
 31
0.0
  0
SPLINE
  5
32B
330
1F
100
AcDbEntity
  8
0
  6
Continuous
 62
     7
370
    15
100
AcDbSpline
210
0.0
220
0.0
230
1.0
 70
     8
 71
     3
 72
    10
 73
     6
 74
     0
 42
0.000000001
 43
0.00000001
 40
0.0
 40
0.0
 40
0.0
 40
0.0
 40
0.2388890012728406
 40
0.6901639007513944
 40
1.0
 40
1.0
 40
1.0
 40
1.0
 10
-583.5738060336322
 20
-380.8354066436966
 30
0.0
 10
-583.5547928069942
 20
-380.8591949515488
 30
0.0
 10
-583.4998625147143
 20
-380.9279207248248
 30
0.0
 10
-584.0782871020605
 20
-380.2049795546041
 30
0.0
 10
-584.7742245602772
 20
-379.2518095482858
 30
0.0
 10
-585.0575295548648
 20
-378.863789302655
 30
0.0
  0
SPLINE
  5
32C
330
1F
100
AcDbEntity
  8
0
  6
Continuous
 62
     7
370
    15
100
AcDbSpline
210
0.0
220
0.0
230
1.0
 70
     8
 71
     3
 72
    10
 73
     6
 74
     0
 42
0.000000001
 43
0.00000001
 40
0.0
 40
0.0
 40
0.0
 40
0.0
 40
0.331056176079998
 40
0.7957734836748974
 40
1.0
 40
1.0
 40
1.0
 40
1.0
 10
-585.0675841133803
 20
-357.8637877231319
 30
0.0
 10
-584.7722651396268
 20
-357.4653350194739
 30
0.0
 10
-584.0623946538326
 20
-356.5075577025723
 30
0.0
 10
-583.5389429426879
 20
-355.8484133377888
 30
0.0
 10
-583.488348998116
 20
-355.7835807555054
 30
0.0
 10
-583.472902820608
 20
-355.7637875651796
 30
0.0
  0
SPLINE
  5
32D
330
1F
100
AcDbEntity
  8
0
  6
Continuous
 62
     7
370
    15
100
AcDbSpline
210
0.0
220
0.0
230
1.0
 70
     8
 71
     3
 72
    22
 73
    18
 74
     0
 42
0.000000001
 43
0.00000001
 40
0.0
 40
0.0
 40
0.0
 40
0.0
 40
0.087077751055807
 40
0.1738038526535121
 40
0.2313481668687244
 40
0.2905520995397038
 40
0.3488893247575876
 40
0.408977811036164
 40
0.4779436696593346
 40
0.547313749125721
 40
0.6291799275051507
 40
0.6881376607312352
 40
0.7487576321789184
 40
0.8086819286370659
 40
0.8706631103967133
 40
0.9564114178102737
 40
1.0
 40
1.0
 40
1.0
 40
1.0
 10
-615.4729043405265
 20
-355.7637875651796
 30
0.0
 10
-615.3902789695227
 20
-355.8679254377278
 30
0.0
 10
-615.2253618967545
 20
-356.0757806388162
 30
0.0
 10
-614.1786871800861
 20
-357.43715905512
 30
0.0
 10
-613.0520977039653
 20
-359.0080179699988
 30
0.0
 10
-611.9810407693005
 20
-360.6282906810775
 30
0.0
 10
-610.9005718716271
 20
-362.5067342413303
 30
0.0
 10
-609.8956584624964
 20
-364.7408023419546
 30
0.0
 10
-609.2324188170708
 20
-367.4211117850226
 30
0.0
 10
-609.4146369986835
 20
-370.5492695211837
 30
0.0
 10
-610.4016395279625
 20
-373.2368447166444
 30
0.0
 10
-611.5922059138026
 20
-375.4623076574861
 30
0.0
 10
-612.6989659369324
 20
-377.205270522508
 30
0.0
 10
-613.763743424788
 20
-378.7209064146356
 30
0.0
 10
-614.7581469563426
 20
-380.0524522984098
 30
0.0
 10
-615.4467394602278
 20
-380.9307395846098
 30
0.0
 10
-615.3908400985629
 20
-380.8594368093355
 30
0.0
 10
-615.3720011275024
 20
-380.8354066436966
 30
0.0
  0
SPLINE
  5
32E
330
1F
100
AcDbEntity
  8
0
  6
Continuous
 62
     7
370
    15
100
AcDbSpline
210
0.0
220
0.0
230
1.0
 70
     8
 71
     3
 72
    13
 73
     9
 74
     0
 42
0.000000001
 43
0.00000001
 40
0.0
 40
0.0
 40
0.0
 40
0.0
 40
0.1503027698471013
 40
0.31190805097316
 40
0.4904255492302756
 40
0.6920130005257253
 40
0.8499268508003817
 40
0.9999999999999999
 40
0.9999999999999999
 40
0.9999999999999999
 40
0.9999999999999999
 10
-526.0007627580077
 20
-355.8803239589412
 30
0.0
 10
-526.0440706882092
 20
-355.9067906547651
 30
0.0
 10
-526.1339432309082
 20
-355.9617142966812
 30
0.0
 10
-527.0721511409538
 20
-356.5043043644685
 30
0.0
 10
-528.6013359227661
 20
-357.2821980063204
 30
0.0
 10
-530.6343301966039
 20
-358.0405938682953
 30
0.0
 10
-532.9077352257981
 20
-358.4436527146328
 30
0.0
 10
-534.296296416563
 20
-358.3072151568996
 30
0.0
 10
-534.9729020885885
 20
-358.2407330846269
 30
0.0
  0
SPLINE
  5
32F
330
1F
100
AcDbEntity
  8
0
  6
Continuous
 62
     7
370
    15
100
AcDbSpline
210
0.0
220
0.0
230
1.0
 70
     8
 71
     3
 72
    12
 73
     8
 74
     0
 42
0.000000001
 43
0.00000001
 40
0.0
 40
0.0
 40
0.0
 40
0.0
 40
0.0455999210837049
 40
0.3148709907568857
 40
0.627905768468467
 40
0.9305267127661404
 40
1.0
 40
1.0
 40
1.0
 40
1.0
 10
-536.5923989370227
 20
-357.8637877231319
 30
0.0
 10
-536.7156690546728
 20
-357.8346345249373
 30
0.0
 10
-537.566858775022
 20
-357.6333294309561
 30
0.0
 10
-538.9278122955277
 20
-356.9792560992617
 30
0.0
 10
-540.4024633266727
 20
-356.2162975121635
 30
0.0
 10
-540.9399352520575
 20
-355.8830734555466
 30
0.0
 10
-540.9677151542356
 20
-355.8668217353467
 30
0.0
 10
-540.9729019079119
 20
-355.8637873953064
 30
0.0
  0
LWPOLYLINE
  5
330
330
1F
100
AcDbEntity
  8
0
  6
Continuous
 62
     7
370
    15
100
AcDbPolyline
 90
       13
 70
   128
 43
0.0
 10
700.6658251126
 20
-355.8803239589
 10
700.4182274182
 20
-356.0271022593
 10
699.5569403012
 20
-356.5109038478
 10
698.0502540905
 20
-357.246857298
 10
695.7900459606
 20
-358.032226724
 10
693.7200958569
 20
-358.349943695
 10
691.5817196209
 20
-358.2346981143
 10
689.7079880078
 20
-357.7736710882
 10
687.8960068066
 20
-357.0471947765
 10
686.3871748287
 20
-356.2671338891
 10
685.7184107144
 20
-355.8786326771
 10
685.6937343914
 20
-355.8637873953
 10
685.6937343914
 20
-355.8637873953
  0
LWPOLYLINE
  5
331
330
1F
100
AcDbEntity
  8
0
  6
Continuous
 62
     7
370
    15
100
AcDbPolyline
 90
       13
 70
   128
 43
0.0
 10
1313.9991695721
 20
-355.8803239589
 10
1313.7515718777
 20
-356.0271022593
 10
1312.8902847607
 20
-356.5109038478
 10
1311.3835985501
 20
-357.246857298
 10
1309.1233904202
 20
-358.032226724
 10
1307.0533211071
 20
-358.349943695
 10
1304.9150640805
 20
-358.2346981143
 10
1303.041213258
 20
-357.7736710882
 10
1301.2293512661
 20
-357.0471947765
 10
1299.720400079
 20
-356.2671338891
 10
1299.0517551739
 20
-355.8786326771
 10
1299.0269596417
 20
-355.8637873953
 10
1299.0269596417
 20
-355.8637873953
  0
LWPOLYLINE
  5
332
330
1F
100
AcDbEntity
  8
0
  6
Continuous
 62
     7
370
    15
100
AcDbPolyline
 90
       13
 70
   128
 43
0.0
 10
87.3325402577
 20
-355.8803239589
 10
87.0849425633
 20
-356.0271022593
 10
86.2236554463
 20
-356.5109038478
 10
84.7169692356
 20
-357.246857298
 10
82.4567611058
 20
-358.032226724
 10
80.3867513974
 20
-358.349943695
 10
78.248434766
 20
-358.2346981143
 10
76.3746435482
 20
-357.7736710882
 10
74.5627219517
 20
-357.0471947765
 10
73.0538303692
 20
-356.2671338891
 10
72.3851854641
 20
-355.8786326771
 10
72.3603899319
 20
-355.8637873953
 10
72.3603899319
 20
-355.8637873953
  0
LINE
  5
333
330
1F
100
AcDbEntity
  8
0
  6
Continuous
 62
     7
370
    15
100
AcDbLine
 10
723.1688434918
 20
-335.8637876095
 30
0.0
 11
723.193639024
 21
-335.8637876095
 31
0.0
  0
LINE
  5
334
330
1F
100
AcDbEntity
  8
0
  6
Continuous
 62
     7
370
    15
100
AcDbLine
 10
663.1936962445
 20
-335.8637876095
 30
0.0
 11
723.1688434918
 21
-335.8637876095
 31
0.0
  0
LINE
  5
335
330
1F
100
AcDbEntity
  8
0
  6
Continuous
 62
     7
370
    15
100
AcDbLine
 10
723.193639024
 20
-333.8637875145
 30
0.0
 11
663.1936962445
 21
-333.8637875145
 31
0.0
  0
LINE
  5
336
330
1F
100
AcDbEntity
  8
0
  6
Continuous
 62
     7
370
    15
100
AcDbLine
 10
708.1936533291
 20
-337.8637877045
 30
0.0
 11
678.1936819393
 21
-337.8637877045
 31
0.0
  0
LINE
  5
337
330
1F
100
AcDbEntity
  8
0
  6
Continuous
 62
     7
370
    15
100
AcDbLine
 10
1336.5021879513
 20
-335.8637876095
 30
0.0
 11
1336.5269834835
 21
-335.8637876095
 31
0.0
  0
LINE
  5
338
330
1F
100
AcDbEntity
  8
0
  6
Continuous
 62
     7
370
    15
100
AcDbLine
 10
1276.527040704
 20
-335.8637876095
 30
0.0
 11
1336.5021879513
 21
-335.8637876095
 31
0.0
  0
LINE
  5
339
330
1F
100
AcDbEntity
  8
0
  6
Continuous
 62
     7
370
    15
100
AcDbLine
 10
1336.5269834835
 20
-333.8637875145
 30
0.0
 11
1276.527040704
 21
-333.8637875145
 31
0.0
  0
LINE
  5
33A
330
1F
100
AcDbEntity
  8
0
  6
Continuous
 62
     7
370
    15
100
AcDbLine
 10
1321.5269977886
 20
-337.8637877045
 30
0.0
 11
1291.5270263989
 21
-337.8637877045
 31
0.0
  0
LINE
  5
33B
330
1F
100
AcDbEntity
  8
0
  6
Continuous
 62
     7
370
    15
100
AcDbLine
 10
-503.4729027461
 20
-333.8637875145
 30
0.0
 11
-563.472901405
 21
-333.8637875145
 31
0.0
  0
LINE
  5
33C
330
1F
100
AcDbEntity
  8
0
  6
Continuous
 62
     7
370
    15
100
AcDbLine
 10
-503.4977169048
 20
-335.8637876095
 30
0.0
 11
-503.4729027461
 21
-335.8637876095
 31
0.0
  0
LINE
  5
33D
330
1F
100
AcDbEntity
  8
0
  6
Continuous
 62
     7
370
    15
100
AcDbLine
 10
-563.472901405
 20
-335.8637876095
 30
0.0
 11
-503.4977169048
 21
-335.8637876095
 31
0.0
  0
LINE
  5
33E
330
1F
100
AcDbEntity
  8
0
  6
Continuous
 62
     7
370
    15
100
AcDbLine
 10
-518.4729024108
 20
-337.8637877045
 30
0.0
 11
-548.4729017403
 21
-337.8637877045
 31
0.0
  0
LINE
  5
33F
330
1F
100
AcDbEntity
  8
0
  6
Continuous
 62
     7
370
    15
100
AcDbLine
 10
109.8604137738
 20
-333.8637875145
 30
0.0
 11
49.8604113896
 21
-333.8637875145
 31
0.0
  0
LINE
  5
340
330
1F
100
AcDbEntity
  8
0
  6
Continuous
 62
     7
370
    15
100
AcDbLine
 10
109.8355586369
 20
-335.8637876095
 30
0.0
 11
109.8604137738
 21
-335.8637876095
 31
0.0
  0
LINE
  5
341
330
1F
100
AcDbEntity
  8
0
  6
Continuous
 62
     7
370
    15
100
AcDbLine
 10
49.8604113896
 20
-335.8637876095
 30
0.0
 11
109.8355586369
 21
-335.8637876095
 31
0.0
  0
LINE
  5
342
330
1F
100
AcDbEntity
  8
0
  6
Continuous
 62
     7
370
    15
100
AcDbLine
 10
94.8603684742
 20
-337.8637877045
 30
0.0
 11
64.8603970845
 21
-337.8637877045
 31
0.0
  0
LINE
  5
343
330
1F
100
AcDbEntity
  8
0
  6
Continuous
 62
     8
370
    15
100
AcDbLine
 10
-578.8049836915
 20
-355.8363767093
 30
0.0
 11
-549.1408211451
 21
-355.8363767093
 31
0.0
  0
LINE
  5
344
330
1F
100
AcDbEntity
  8
0
  6
Continuous
 62
     8
370
    15
100
AcDbLine
 10
-548.9729018222
 20
-356.0337872928
 30
0.0
 11
-578.9729011517
 21
-356.0337872928
 31
0.0
  0
LINE
  5
345
330
1F
100
AcDbEntity
  8
0
  6
Continuous
 62
     8
370
    15
100
AcDbLine
 10
-549.307669447
 20
-357.1637870496
 30
0.0
 11
-548.9729018222
 21
-357.1637870496
 31
0.0
  0
LINE
  5
346
330
1F
100
AcDbEntity
  8
0
  6
Continuous
 62
     8
370
    15
100
AcDbLine
 10
-578.9729011517
 20
-357.1637870496
 30
0.0
 11
-549.307669447
 21
-357.1637870496
 31
0.0
  0
LINE
  5
347
330
1F
100
AcDbEntity
  8
0
  6
Continuous
 62
     8
370
    15
100
AcDbLine
 10
-554.4405010801
 20
-357.5637882328
 30
0.0
 11
-573.7229016881
 21
-357.5637882328
 31
0.0
  0
LINE
  5
348
330
1F
100
AcDbEntity
  8
0
  6
Continuous
 62
     8
370
    15
100
AcDbLine
 10
-554.2229012858
 20
-357.5637882328
 30
0.0
 11
-554.4405010801
 21
-357.5637882328
 31
0.0
  0
LINE
  5
349
330
1F
100
AcDbEntity
  8
0
  6
Continuous
 62
     8
370
    15
100
AcDbLine
 10
202.0270759899
 20
-356.0337872928
 30
0.0
 11
172.0271046002
 21
-356.0337872928
 31
0.0
  0
LINE
  5
34A
330
1F
100
AcDbEntity
  8
0
  6
Continuous
 62
     8
370
    15
100
AcDbLine
 10
201.6923363049
 20
-357.1637870496
 30
0.0
 11
202.0270759899
 21
-357.1637870496
 31
0.0
  0
LINE
  5
34B
330
1F
100
AcDbEntity
  8
0
  6
Continuous
 62
     8
370
    15
100
AcDbLine
 10
172.0271046002
 20
-357.1637870496
 30
0.0
 11
201.6923363049
 21
-357.1637870496
 31
0.0
  0
LINE
  5
34C
330
1F
100
AcDbEntity
  8
0
  6
Continuous
 62
     8
370
    15
100
AcDbLine
 10
172.1950108845
 20
-355.8363767093
 30
0.0
 11
201.8591697056
 21
-355.8363767093
 31
0.0
  0
LINE
  5
34D
330
1F
100
AcDbEntity
  8
0
  6
Continuous
 62
     8
370
    15
100
AcDbLine
 10
196.55948232
 20
-357.5637882328
 30
0.0
 11
177.277081712
 21
-357.5637882328
 31
0.0
  0
LINE
  5
34E
330
1F
100
AcDbEntity
  8
0
  6
Continuous
 62
     8
370
    15
100
AcDbLine
 10
196.7770988781
 20
-357.5637882328
 30
0.0
 11
196.55948232
 21
-357.5637882328
 31
0.0
  0
LINE
  5
34F
330
1F
100
AcDbEntity
  8
0
  6
Continuous
 62
     8
370
    15
100
AcDbLine
 10
174.527102216
 20
-392.6954010254
 30
0.0
 11
199.5270783741
 21
-392.6954010254
 31
0.0
  0
LINE
  5
350
330
1F
100
AcDbEntity
  8
0
  6
Continuous
 62
     8
370
    15
100
AcDbLine
 10
199.3610198338
 20
-392.8924986845
 30
0.0
 11
174.6931607563
 21
-392.8924986845
 31
0.0
  0
LINE
  5
351
330
1F
100
AcDbEntity
  8
0
  6
Continuous
 62
     8
370
    15
100
AcDbLine
 10
-576.4729035359
 20
-392.6954010254
 30
0.0
 11
-551.4729013007
 21
-392.6954010254
 31
0.0
  0
LINE
  5
352
330
1F
100
AcDbEntity
  8
0
  6
Continuous
 62
     8
370
    15
100
AcDbLine
 10
-551.638965429
 20
-392.8924986845
 30
0.0
 11
-576.3068375449
 21
-392.8924986845
 31
0.0
  0
LINE
  5
353
330
1F
100
AcDbEntity
  8
0
  6
Continuous
 62
     8
370
    15
100
AcDbLine
 10
1345.527046426
 20
-394.293788982
 30
0.0
 11
1375.5271370251
 21
-394.293788982
 31
0.0
  0
LINE
  5
354
330
1F
100
AcDbEntity
  8
0
  6
Continuous
 62
     8
370
    15
100
AcDbLine
 10
1375.3591711361
 20
-394.4911995655
 30
0.0
 11
1345.695012315
 21
-394.4911995655
 31
0.0
  0
LINE
  5
355
330
1F
100
AcDbEntity
  8
0
  6
Continuous
 62
     8
370
    15
100
AcDbLine
 10
-614.472902314
 20
-394.293788982
 30
0.0
 11
-584.4729011219
 21
-394.293788982
 31
0.0
  0
LINE
  5
356
330
1F
100
AcDbEntity
  8
0
  6
Continuous
 62
     8
370
    15
100
AcDbLine
 10
-584.6408223074
 20
-394.4911995655
 30
0.0
 11
-614.3049811285
 21
-394.4911995655
 31
0.0
  0
LINE
  5
357
330
1F
100
AcDbEntity
  8
0
  6
Continuous
 62
     7
370
    15
100
AcDbLine
 10
-1149.2117639563
 20
2152.7820242579
 30
0.0
 11
-1159.0117622099
 21
2152.7820242579
 31
0.0
  0
LINE
  5
358
330
1F
100
AcDbEntity
  8
0
  6
Continuous
 62
     7
370
    15
100
AcDbLine
 10
-1159.0117622099
 20
2137.8820244233
 30
0.0
 11
-1149.2117639563
 21
2137.8820244233
 31
0.0
  0
LWPOLYLINE
  5
359
330
1F
100
AcDbEntity
  8
0
  6
Continuous
 62
     7
370
    15
100
AcDbPolyline
 90
        3
 70
   128
 43
0.0
 10
-1149.2117639563
 20
2137.8820244233
 10
-1148.4314013204
 20
2137.9588832158
 10
-1148.1783386252
 20
2138.0178256902
  0
LWPOLYLINE
  5
35A
330
1F
100
AcDbEntity
  8
0
  6
Continuous
 62
     7
370
    15
100
AcDbPolyline
 90
        3
 70
   128
 43
0.0
 10
-1148.1783386252
 20
2152.646222991
 10
-1148.4314013204
 20
2152.7051654655
 10
-1149.2117639563
 20
2152.7820242579
  0
LINE
  5
35B
330
1F
100
AcDbEntity
  8
0
  6
Continuous
 62
     7
370
    15
100
AcDbLine
 10
-1159.0117622099
 20
2152.7820242579
 30
0.0
 11
-1159.2117618701
 21
2152.582024132
 31
0.0
  0
LINE
  5
35C
330
1F
100
AcDbEntity
  8
0
  6
Continuous
 62
     7
370
    15
100
AcDbLine
 10
-1159.2117618701
 20
2138.0820245492
 30
0.0
 11
-1159.0117622099
 21
2137.8820244233
 31
0.0
  0
LINE
  5
35D
330
1F
100
AcDbEntity
  8
0
  6
Continuous
 62
     7
370
    15
100
AcDbLine
 10
-1159.4117615304
 20
2137.8820244233
 30
0.0
 11
-1159.2117618701
 21
2138.0820245492
 31
0.0
  0
LINE
  5
35E
330
1F
100
AcDbEntity
  8
0
  6
Continuous
 62
     7
370
    15
100
AcDbLine
 10
-1159.2117618701
 20
2152.582024132
 30
0.0
 11
-1159.4117615304
 21
2152.7820242579
 31
0.0
  0
LINE
  5
35F
330
1F
100
AcDbEntity
  8
0
  6
Continuous
 62
     7
370
    15
100
AcDbLine
 10
-1159.4117615304
 20
2152.7820242579
 30
0.0
 11
-1163.1109189174
 21
2152.7820242579
 31
0.0
  0
LINE
  5
360
330
1F
100
AcDbEntity
  8
0
  6
Continuous
 62
     7
370
    15
100
AcDbLine
 10
-1165.7490689239
 20
2152.7820242579
 30
0.0
 11
-1165.8105846426
 21
2152.7820242579
 31
0.0
  0
LINE
  5
361
330
1F
100
AcDbEntity
  8
0
  6
Continuous
 62
     7
370
    15
100
AcDbLine
 10
-1165.8449541709
 20
2137.8820244233
 30
0.0
 11
-1165.7490689239
 21
2137.8820244233
 31
0.0
  0
LINE
  5
362
330
1F
100
AcDbEntity
  8
0
  6
Continuous
 62
     7
370
    15
100
AcDbLine
 10
-1163.1109189174
 20
2137.8820244233
 30
0.0
 11
-1159.4117615304
 21
2137.8820244233
 31
0.0
  0
ARC
  5
363
330
1F
100
AcDbEntity
  8
0
  6
Continuous
 62
     7
370
    15
100
AcDbCircle
 10
-1144.511763092
 20
2198.6320243406
 30
0.0
 40
0.2000000000000455
100
AcDbArc
 50
90.0
 51
180.0
  0
ARC
  5
364
330
1F
100
AcDbEntity
  8
0
  6
Continuous
 62
     7
370
    15
100
AcDbCircle
 10
-1144.511763092
 20
2169.0320243406
 30
0.0
 40
0.2000000000002728
100
AcDbArc
 50
180.0
 51
270.0
  0
ARC
  5
365
330
1F
100
AcDbEntity
  8
0
  6
Continuous
 62
     7
370
    15
100
AcDbCircle
 10
-1143.3817622433
 20
2169.0320243406
 30
0.0
 40
0.2000000000003763
100
AcDbArc
 50
270.0
 51
350.7694259591
  0
ARC
  5
366
330
1F
100
AcDbEntity
  8
0
  6
Continuous
 62
     7
370
    15
100
AcDbCircle
 10
-1143.3817622433
 20
2198.6320243406
 30
0.0
 40
0.2000000000003034
100
AcDbArc
 50
9.2305740408
 51
90.0
  0
LINE
  5
367
330
1F
100
AcDbEntity
  8
0
  6
Continuous
 62
     7
370
    15
100
AcDbLine
 10
-1143.3817628703
 20
2198.8320247281
 30
0.0
 11
-1144.5117626271
 21
2198.8320247281
 31
0.0
  0
LINE
  5
368
330
1F
100
AcDbEntity
  8
0
  6
Continuous
 62
     7
370
    15
100
AcDbLine
 10
-1144.5117626271
 20
2168.832023536
 30
0.0
 11
-1143.3817628703
 21
2168.832023536
 31
0.0
  0
ARC
  5
369
330
1F
100
AcDbEntity
  8
0
  6
Continuous
 62
     7
370
    15
100
AcDbCircle
 10
-1261.6304491743
 20
2188.2488929489
 30
0.0
 40
120.0000000000001
100
AcDbArc
 50
350.7694259592
 51
356.6681598255
  0
ARC
  5
36A
330
1F
100
AcDbEntity
  8
0
  6
Continuous
 62
     7
370
    15
100
AcDbCircle
 10
-1261.6304491743
 20
2179.4151557324
 30
0.0
 40
120.0000000000001
100
AcDbArc
 50
3.3313005321
 51
9.2305740408
  0
ARC
  5
36B
330
1F
100
AcDbEntity
  8
0
  6
Continuous
 62
     7
370
    15
100
AcDbCircle
 10
-1144.911763092
 20
2193.7820243406
 30
0.0
 40
0.2000000000002728
100
AcDbArc
 50
270.0
 51
0.0
  0
ARC
  5
36C
330
1F
100
AcDbEntity
  8
0
  6
Continuous
 62
     7
370
    15
100
AcDbCircle
 10
-1144.911763092
 20
2173.8820243406
 30
0.0
 40
0.2000000000002728
100
AcDbArc
 50
0.0
 51
90.0
  0
LINE
  5
36D
330
1F
100
AcDbEntity
  8
0
  6
Continuous
 62
     7
370
    15
100
AcDbLine
 10
-1144.9117638102
 20
2193.5820252645
 30
0.0
 11
-1145.2117633006
 21
2193.5820252645
 31
0.0
  0
LINE
  5
36E
330
1F
100
AcDbEntity
  8
0
  6
Continuous
 62
     7
370
    15
100
AcDbLine
 10
-1145.2117633006
 20
2174.0820248622
 30
0.0
 11
-1144.9117638102
 21
2174.0820248622
 31
0.0
  0
LINE
  5
36F
330
1F
100
AcDbEntity
  8
0
  6
Continuous
 62
     7
370
    15
100
AcDbLine
 10
-1180.0433766029
 20
2171.3320248771
 30
0.0
 11
-1178.7117641351
 21
2171.3320248771
 31
0.0
  0
LINE
  5
370
330
1F
100
AcDbEntity
  8
0
  6
Continuous
 62
     7
370
    15
100
AcDbLine
 10
-1178.7117641351
 20
2196.332023387
 30
0.0
 11
-1180.0433766029
 21
2196.332023387
 31
0.0
  0
ARC
  5
371
330
1F
100
AcDbEntity
  8
0
  6
Continuous
 62
     7
370
    15
100
AcDbCircle
 10
-1180.0433757943
 20
2196.1320243406
 30
0.0
 40
0.2000000000001795
100
AcDbArc
 50
90.0
 51
170.2307482568
  0
ARC
  5
372
330
1F
100
AcDbEntity
  8
0
  6
Continuous
 62
     7
370
    15
100
AcDbCircle
 10
-1180.0433757943
 20
2171.5320243406
 30
0.0
 40
0.2000000000001023
100
AcDbArc
 50
189.7692517431
 51
270.0
  0
ARC
  5
373
330
1F
100
AcDbEntity
  8
0
  6
Continuous
 62
     7
370
    15
100
AcDbCircle
 10
-1061.9805835038
 20
2175.80428279
 30
0.0
 40
120.0000000000002
100
AcDbArc
 50
170.2307482568
 51
176.16417102
  0
ARC
  5
374
330
1F
100
AcDbEntity
  8
0
  6
Continuous
 62
     7
370
    15
100
AcDbCircle
 10
-1061.9805835038
 20
2191.8597658912
 30
0.0
 40
120.0000000000003
100
AcDbArc
 50
183.83582898
 51
189.7692517432
  0
LINE
  5
375
330
1F
100
AcDbEntity
  8
0
  6
Continuous
 62
     7
370
    15
100
AcDbLine
 10
-1164.7117618403
 20
2212.8320270228
 30
0.0
 11
-1166.2117648802
 21
2212.8320270228
 31
0.0
  0
LINE
  5
376
330
1F
100
AcDbEntity
  8
0
  6
Continuous
 62
     7
370
    15
100
AcDbLine
 10
-1145.2117633006
 20
2212.8320270228
 30
0.0
 11
-1146.7117626152
 21
2212.8320270228
 31
0.0
  0
LINE
  5
377
330
1F
100
AcDbEntity
  8
0
  6
Continuous
 62
     7
370
    15
100
AcDbLine
 10
-1147.5877255133
 20
2154.8320240352
 30
0.0
 11
-1147.512413182
 21
2154.8320240352
 31
0.0
  0
LINE
  5
378
330
1F
100
AcDbEntity
  8
0
  6
Continuous
 62
     7
370
    15
100
AcDbLine
 10
-1146.7117626152
 20
2212.8320270228
 30
0.0
 11
-1147.7321922711
 21
2212.8320270228
 31
0.0
  0
ARC
  5
379
330
1F
100
AcDbEntity
  8
0
  6
Continuous
 62
     7
370
    15
100
AcDbCircle
 10
-1155.7378145153
 20
2222.4320243406
 30
0.0
 40
12.50000000000006
100
AcDbArc
 50
230.1746287392
 51
309.8253712608
  0
LINE
  5
37A
330
1F
100
AcDbEntity
  8
0
  6
Continuous
 62
     7
370
    15
100
AcDbLine
 10
-1163.7434359572
 20
2212.8320270228
 30
0.0
 11
-1164.7117618403
 21
2212.8320270228
 31
0.0
  0
LINE
  5
37B
330
1F
100
AcDbEntity
  8
0
  6
Continuous
 62
     7
370
    15
100
AcDbLine
 10
-1172.4117617986
 20
2168.832023536
 30
0.0
 11
-1167.0117635212
 21
2168.832023536
 31
0.0
  0
LINE
  5
37C
330
1F
100
AcDbEntity
  8
0
  6
Continuous
 62
     7
370
    15
100
AcDbLine
 10
-1167.0117635212
 20
2198.8320247281
 30
0.0
 11
-1172.4117617986
 21
2198.8320247281
 31
0.0
  0
LINE
  5
37D
330
1F
100
AcDbEntity
  8
0
  6
Continuous
 62
     7
370
    15
100
AcDbLine
 10
-1167.0117635212
 20
2168.832023536
 30
0.0
 11
-1166.7117621681
 21
2169.132024889
 31
0.0
  0
LINE
  5
37E
330
1F
100
AcDbEntity
  8
0
  6
Continuous
 62
     7
370
    15
100
AcDbLine
 10
-1166.7117621681
 20
2198.532023375
 30
0.0
 11
-1167.0117635212
 21
2198.8320247281
 31
0.0
  0
LINE
  5
37F
330
1F
100
AcDbEntity
  8
0
  6
Continuous
 62
     7
370
    15
100
AcDbLine
 10
-1172.4117617986
 20
2198.8320247281
 30
0.0
 11
-1172.7117631516
 21
2198.532023375
 31
0.0
  0
LINE
  5
380
330
1F
100
AcDbEntity
  8
0
  6
Continuous
 62
     7
370
    15
100
AcDbLine
 10
-1172.7117631516
 20
2169.132024889
 30
0.0
 11
-1172.4117617986
 21
2168.832023536
 31
0.0
  0
LINE
  5
381
330
1F
100
AcDbEntity
  8
0
  6
Continuous
 62
     7
370
    15
100
AcDbLine
 10
-1166.7117621681
 20
2174.0820248622
 30
0.0
 11
-1166.2117648802
 21
2174.0820248622
 31
0.0
  0
LINE
  5
382
330
1F
100
AcDbEntity
  8
0
  6
Continuous
 62
     7
370
    15
100
AcDbLine
 10
-1166.2117648802
 20
2193.5820252645
 30
0.0
 11
-1166.7117621681
 21
2193.5820252645
 31
0.0
  0
LINE
  5
383
330
1F
100
AcDbEntity
  8
0
  6
Continuous
 62
     7
370
    15
100
AcDbLine
 10
-1172.7117631516
 20
2198.8320247281
 30
0.0
 11
-1178.7117641351
 21
2198.8320247281
 31
0.0
  0
LINE
  5
384
330
1F
100
AcDbEntity
  8
0
  6
Continuous
 62
     7
370
    15
100
AcDbLine
 10
-1156.6235940835
 20
54.331944232
 30
0.0
 11
-1156.9028753719
 21
70.3319766569
 31
0.0
  0
LINE
  5
385
330
1F
100
AcDbEntity
  8
0
  6
Continuous
 62
     7
370
    15
100
AcDbLine
 10
-1161.5206520936
 20
70.3319766569
 30
0.0
 11
-1161.799933382
 21
54.331944232
 31
0.0
  0
ARC
  5
386
330
1F
100
AcDbEntity
  8
0
  6
Continuous
 62
     7
370
    15
100
AcDbCircle
 10
-1181.6417639407
 20
2160.1320243406
 30
0.0
 40
0.1999999999998545
100
AcDbArc
 50
90.0
 51
170.7694259592
  0
ARC
  5
387
330
1F
100
AcDbEntity
  8
0
  6
Continuous
 62
     7
370
    15
100
AcDbCircle
 10
-1181.6417639407
 20
2130.5320243406
 30
0.0
 40
0.2000000000002728
100
AcDbArc
 50
189.2305740408
 51
270.0
  0
LINE
  5
388
330
1F
100
AcDbEntity
  8
0
  6
Continuous
 62
     7
370
    15
100
AcDbLine
 10
-1181.6417645595
 20
2130.3320246759
 30
0.0
 11
-1180.3117614171
 21
2130.3320246759
 31
0.0
  0
LINE
  5
389
330
1F
100
AcDbEntity
  8
0
  6
Continuous
 62
     7
370
    15
100
AcDbLine
 10
-1180.3117614171
 20
2160.3320240054
 30
0.0
 11
-1181.6417645595
 21
2160.3320240054
 31
0.0
  0
ARC
  5
38A
330
1F
100
AcDbEntity
  8
0
  6
Continuous
 62
     7
370
    15
100
AcDbCircle
 10
-1063.3930770097
 20
2140.9151557324
 30
0.0
 40
120.0
100
AcDbArc
 50
170.7694259592
 51
176.4874053343
  0
ARC
  5
38B
330
1F
100
AcDbEntity
  8
0
  6
Continuous
 62
     7
370
    15
100
AcDbCircle
 10
-1063.3930770097
 20
2149.7488929489
 30
0.0
 40
119.9999999999999
100
AcDbArc
 50
183.5116471215
 51
189.2305740408
  0
LINE
  5
38C
330
1F
100
AcDbEntity
  8
0
  6
Continuous
 62
     7
370
    15
100
AcDbLine
 10
-1172.3117638311
 20
2165.3320238936
 30
0.0
 11
-1180.3117614171
 21
2165.3320238936
 31
0.0
  0
LINE
  5
38D
330
1F
100
AcDbEntity
  8
0
  6
Continuous
 62
     7
370
    15
100
AcDbLine
 10
-1180.3117614171
 20
2125.3320247877
 30
0.0
 11
-1172.3117638311
 21
2125.3320247877
 31
0.0
  0
LINE
  5
38E
330
1F
100
AcDbEntity
  8
0
  6
Continuous
 62
     7
370
    15
100
AcDbLine
 10
-1141.511763998
 20
2129.3320235807
 30
0.0
 11
-1139.7117633304
 21
2131.1320242482
 31
0.0
  0
LINE
  5
38F
330
1F
100
AcDbEntity
  8
0
  6
Continuous
 62
     7
370
    15
100
AcDbLine
 10
-1139.7117633304
 20
2159.532024433
 30
0.0
 11
-1141.511763998
 21
2161.3320251006
 31
0.0
  0
LINE
  5
390
330
1F
100
AcDbEntity
  8
0
  6
Continuous
 62
     7
370
    15
100
AcDbLine
 10
-1141.511763998
 20
2161.3320251006
 30
0.0
 11
-1172.3117638311
 21
2161.3320251006
 31
0.0
  0
LINE
  5
391
330
1F
100
AcDbEntity
  8
0
  6
Continuous
 62
     7
370
    15
100
AcDbLine
 10
-1172.3117638311
 20
2129.3320235807
 30
0.0
 11
-1141.511763998
 21
2129.3320235807
 31
0.0
  0
LINE
  5
392
330
1F
100
AcDbEntity
  8
0
  6
Continuous
 62
     7
370
    15
100
AcDbLine
 10
-1125.211763282
 20
2152.832024173
 30
0.0
 11
-1139.7117633304
 21
2152.832024173
 31
0.0
  0
LINE
  5
393
330
1F
100
AcDbEntity
  8
0
  6
Continuous
 62
     7
370
    15
100
AcDbLine
 10
-1139.7117633304
 20
2137.8320245083
 30
0.0
 11
-1125.211763282
 21
2137.8320245083
 31
0.0
  0
LINE
  5
394
330
1F
100
AcDbEntity
  8
0
  6
Continuous
 62
     7
370
    15
100
AcDbLine
 10
-1123.211763187
 20
2175.3320236701
 30
0.0
 11
-1125.211763282
 21
2160.3320240054
 31
0.0
  0
LINE
  5
395
330
1F
100
AcDbEntity
  8
0
  6
Continuous
 62
     7
370
    15
100
AcDbLine
 10
-1125.211763282
 20
2130.3320246759
 30
0.0
 11
-1123.211763187
 21
2115.3320250112
 31
0.0
  0
LINE
  5
396
330
1F
100
AcDbEntity
  8
0
  6
Continuous
 62
     7
370
    15
100
AcDbLine
 10
-1121.211763092
 20
2175.3320236701
 30
0.0
 11
-1123.211763187
 21
2175.3320236701
 31
0.0
  0
LINE
  5
397
330
1F
100
AcDbEntity
  8
0
  6
Continuous
 62
     7
370
    15
100
AcDbLine
 10
-1123.211763187
 20
2115.3320250112
 30
0.0
 11
-1121.211763092
 21
2115.3320250112
 31
0.0
  0
CIRCLE
  5
398
330
1F
100
AcDbEntity
  8
0
  6
Continuous
 62
     7
370
    15
100
AcDbCircle
 10
-1155.711763092
 20
2145.3320243406
 30
0.0
 40
12.5
  0
CIRCLE
  5
399
330
1F
100
AcDbEntity
  8
0
  6
Continuous
 62
     7
370
    15
100
AcDbCircle
 10
-1155.711763092
 20
2145.3320243406
 30
0.0
 40
10.5
  0
LINE
  5
39A
330
1F
100
AcDbEntity
  8
0
  6
Continuous
 62
     7
370
    15
100
AcDbLine
 10
-1159.0117622099
 20
2143.6798039601
 30
0.0
 11
-1159.0117622099
 21
2152.7820242579
 31
0.0
  0
LINE
  5
39B
330
1F
100
AcDbEntity
  8
0
  6
Continuous
 62
     7
370
    15
100
AcDbLine
 10
-1159.0117622099
 20
2137.8820244233
 30
0.0
 11
-1159.0117622099
 21
2143.6798039601
 31
0.0
  0
LINE
  5
39C
330
1F
100
AcDbEntity
  8
0
  6
Continuous
 62
     7
370
    15
100
AcDbLine
 10
-1159.2117618701
 20
2143.7241587798
 30
0.0
 11
-1159.2117618701
 21
2152.582024132
 31
0.0
  0
LINE
  5
39D
330
1F
100
AcDbEntity
  8
0
  6
Continuous
 62
     7
370
    15
100
AcDbLine
 10
-1159.2117618701
 20
2138.0820245492
 30
0.0
 11
-1159.2117618701
 21
2143.7241587798
 31
0.0
  0
LINE
  5
39E
330
1F
100
AcDbEntity
  8
0
  6
Continuous
 62
     7
370
    15
100
AcDbLine
 10
-1159.4117615304
 20
2143.6798039601
 30
0.0
 11
-1159.4117615304
 21
2152.7820242579
 31
0.0
  0
LINE
  5
39F
330
1F
100
AcDbEntity
  8
0
  6
Continuous
 62
     7
370
    15
100
AcDbLine
 10
-1159.4117615304
 20
2137.8820244233
 30
0.0
 11
-1159.4117615304
 21
2143.6798039601
 31
0.0
  0
LINE
  5
3A0
330
1F
100
AcDbEntity
  8
0
  6
Continuous
 62
     7
370
    15
100
AcDbLine
 10
-1179.2117614231
 20
60.3319861937
 30
0.0
 11
-1179.2117614231
 21
2110.3320241916
 31
0.0
  0
LINE
  5
3A1
330
1F
100
AcDbEntity
  8
0
  6
Continuous
 62
     7
370
    15
100
AcDbLine
 10
-1179.2117614231
 20
2110.3320241916
 30
0.0
 11
-1139.2117623172
 21
2110.3320241916
 31
0.0
  0
LINE
  5
3A2
330
1F
100
AcDbEntity
  8
0
  6
Continuous
 62
     7
370
    15
100
AcDbLine
 10
-1155.7117622277
 20
80.3319671202
 30
0.0
 11
-1162.7117615125
 21
80.3319671202
 31
0.0
  0
LINE
  5
3A3
330
1F
100
AcDbEntity
  8
0
  6
Continuous
 62
     7
370
    15
100
AcDbLine
 10
-1179.2117614231
 20
60.3319861937
 30
0.0
 11
-1162.7117615125
 21
60.3319861937
 31
0.0
  0
LINE
  5
3A4
330
1F
100
AcDbEntity
  8
0
  6
Continuous
 62
     7
370
    15
100
AcDbLine
 10
-1139.2117623172
 20
60.3319861937
 30
0.0
 11
-1139.2117623172
 21
2110.3320241916
 31
0.0
  0
LINE
  5
3A5
330
1F
100
AcDbEntity
  8
0
  6
Continuous
 62
     7
370
    15
100
AcDbLine
 10
-1155.7117622277
 20
60.3319861937
 30
0.0
 11
-1139.2117623172
 21
60.3319861937
 31
0.0
  0
LINE
  5
3A6
330
1F
100
AcDbEntity
  8
0
  6
Continuous
 62
     7
370
    15
100
AcDbLine
 10
-1162.7117615125
 20
80.3319671202
 30
0.0
 11
-1162.7117615125
 21
60.3319861937
 31
0.0
  0
LINE
  5
3A7
330
1F
100
AcDbEntity
  8
0
  6
Continuous
 62
     7
370
    15
100
AcDbLine
 10
-1155.7117622277
 20
80.3319671202
 30
0.0
 11
-1155.7117622277
 21
60.3319861937
 31
0.0
  0
LINE
  5
3A8
330
1F
100
AcDbEntity
  8
0
  6
Continuous
 62
     7
370
    15
100
AcDbLine
 10
-1144.7117622874
 20
2186.9413488555
 30
0.0
 11
-1144.7117622874
 21
2198.6320250678
 31
0.0
  0
LINE
  5
3A9
330
1F
100
AcDbEntity
  8
0
  6
Continuous
 62
     7
370
    15
100
AcDbLine
 10
-1144.7117622874
 20
2169.0320250589
 30
0.0
 11
-1144.7117622874
 21
2186.9413488555
 31
0.0
  0
LINE
  5
3AA
330
1F
100
AcDbEntity
  8
0
  6
Continuous
 62
     7
370
    15
100
AcDbLine
 10
-1141.8384998969
 20
2186.3890186894
 30
0.0
 11
-1141.8529167703
 21
2186.5794667053
 31
0.0
  0
LINE
  5
3AB
330
1F
100
AcDbEntity
  8
0
  6
Continuous
 62
     7
370
    15
100
AcDbLine
 10
-1141.8529167703
 20
2186.5794667053
 30
0.0
 11
-1141.8529167703
 21
2184.4385013926
 31
0.0
  0
LINE
  5
3AC
330
1F
100
AcDbEntity
  8
0
  6
Continuous
 62
     7
370
    15
100
AcDbLine
 10
-1141.8529167703
 20
2184.4385013926
 30
0.0
 11
-1141.8529167703
 21
2181.691055094
 31
0.0
  0
SPLINE
  5
3AD
330
1F
100
AcDbEntity
  8
0
  6
Continuous
 62
     7
370
    15
100
AcDbSpline
210
0.0
220
0.0
230
1.0
 70
     8
 71
     3
 72
     9
 73
     5
 74
     0
 42
0.000000001
 43
0.00000001
 40
0.0
 40
0.0
 40
0.0
 40
0.0
 40
0.7287302334243986
 40
1.0
 40
1.0
 40
1.0
 40
1.0
 10
-1141.852916770312
 20
2181.691055094003
 30
0.0
 10
-1141.839688726923
 20
2181.589978286461
 30
0.0
 10
-1141.821536545522
 20
2181.451275646024
 30
0.0
 10
-1141.83488603464
 20
2181.312564564957
 30
0.0
 10
-1141.838507347437
 20
2181.274936442375
 30
0.0
  0
LINE
  5
3AE
330
1F
100
AcDbEntity
  8
0
  6
Continuous
 62
     7
370
    15
100
AcDbLine
 10
-1164.7117618403
 20
2212.8320270228
 30
0.0
 11
-1164.7117618403
 21
2161.3320251006
 31
0.0
  0
LINE
  5
3AF
330
1F
100
AcDbEntity
  8
0
  6
Continuous
 62
     7
370
    15
100
AcDbLine
 10
-1166.2117648802
 20
2212.8320270228
 30
0.0
 11
-1166.2117648802
 21
2161.3320251006
 31
0.0
  0
LINE
  5
3B0
330
1F
100
AcDbEntity
  8
0
  6
Continuous
 62
     7
370
    15
100
AcDbLine
 10
-1145.2117633006
 20
2161.3320251006
 30
0.0
 11
-1145.2117633006
 21
2212.8320270228
 31
0.0
  0
LINE
  5
3B1
330
1F
100
AcDbEntity
  8
0
  6
Continuous
 62
     7
370
    15
100
AcDbLine
 10
-1146.7117626152
 20
2161.3320251006
 30
0.0
 11
-1146.7117626152
 21
2212.8320270228
 31
0.0
  0
LINE
  5
3B2
330
1F
100
AcDbEntity
  8
0
  6
Continuous
 62
     7
370
    15
100
AcDbLine
 10
-1147.7321922711
 20
2170.9198941487
 30
0.0
 11
-1147.7321922711
 21
2161.3320251006
 31
0.0
  0
LINE
  5
3B3
330
1F
100
AcDbEntity
  8
0
  6
Continuous
 62
     7
370
    15
100
AcDbLine
 10
-1147.7321922711
 20
2212.8320270228
 30
0.0
 11
-1147.7321922711
 21
2170.9198941487
 31
0.0
  0
LINE
  5
3B4
330
1F
100
AcDbEntity
  8
0
  6
Continuous
 62
     7
370
    15
100
AcDbLine
 10
-1163.7434359572
 20
2161.3320251006
 30
0.0
 11
-1163.7434359572
 21
2212.8320270228
 31
0.0
  0
LINE
  5
3B5
330
1F
100
AcDbEntity
  8
0
  6
Continuous
 62
     7
370
    15
100
AcDbLine
 10
-1143.2117629728
 20
2127.3320251155
 30
0.0
 11
-1143.2117629728
 21
2129.3320235807
 31
0.0
  0
LINE
  5
3B6
330
1F
100
AcDbEntity
  8
0
  6
Continuous
 62
     7
370
    15
100
AcDbLine
 10
-1161.2117621979
 20
2129.3320235807
 30
0.0
 11
-1161.2117621979
 21
2127.3320251155
 31
0.0
  0
LINE
  5
3B7
330
1F
100
AcDbEntity
  8
0
  6
Continuous
 62
     7
370
    15
100
AcDbLine
 10
-1142.7117638222
 20
2129.3320235807
 30
0.0
 11
-1142.7117638222
 21
2127.3320251155
 31
0.0
  0
LINE
  5
3B8
330
1F
100
AcDbEntity
  8
0
  6
Continuous
 62
     7
370
    15
100
AcDbLine
 10
-1161.7117632112
 20
2127.3320251155
 30
0.0
 11
-1161.7117632112
 21
2129.3320235807
 31
0.0
  0
LINE
  5
3B9
330
1F
100
AcDbEntity
  8
0
  6
Continuous
 62
     7
370
    15
100
AcDbLine
 10
-1167.0117635212
 20
2168.832023536
 30
0.0
 11
-1167.0117635212
 21
2198.8320247281
 31
0.0
  0
LINE
  5
3BA
330
1F
100
AcDbEntity
  8
0
  6
Continuous
 62
     7
370
    15
100
AcDbLine
 10
-1172.4117617986
 20
2198.8320247281
 30
0.0
 11
-1172.4117617986
 21
2168.832023536
 31
0.0
  0
LINE
  5
3BB
330
1F
100
AcDbEntity
  8
0
  6
Continuous
 62
     7
370
    15
100
AcDbLine
 10
-1166.7117621681
 20
2198.532023375
 30
0.0
 11
-1166.7117621681
 21
2169.132024889
 31
0.0
  0
LINE
  5
3BC
330
1F
100
AcDbEntity
  8
0
  6
Continuous
 62
     7
370
    15
100
AcDbLine
 10
-1142.7117638222
 20
2110.3320241916
 30
0.0
 11
-1142.7117638222
 21
2127.3320251155
 31
0.0
  0
LINE
  5
3BD
330
1F
100
AcDbEntity
  8
0
  6
Continuous
 62
     7
370
    15
100
AcDbLine
 10
-1172.7117631516
 20
2110.3320241916
 30
0.0
 11
-1172.7117631516
 21
2125.3320247877
 31
0.0
  0
LINE
  5
3BE
330
1F
100
AcDbEntity
  8
0
  6
Continuous
 62
     7
370
    15
100
AcDbLine
 10
-1142.7117638222
 20
2127.3320251155
 30
0.0
 11
-1172.3117638311
 21
2127.3320251155
 31
0.0
  0
LINE
  5
3BF
330
1F
100
AcDbEntity
  8
0
  6
Continuous
 62
     7
370
    15
100
AcDbLine
 10
-1172.7117631516
 20
2183.832024132
 30
0.0
 11
-1178.7117641351
 21
2183.832024132
 31
0.0
  0
LINE
  5
3C0
330
1F
100
AcDbEntity
  8
0
  6
Continuous
 62
     7
370
    15
100
AcDbLine
 10
-1172.7117631516
 20
2198.8320247281
 30
0.0
 11
-1172.7117631516
 21
2183.832024132
 31
0.0
  0
LINE
  5
3C1
330
1F
100
AcDbEntity
  8
0
  6
Continuous
 62
     7
370
    15
100
AcDbLine
 10
-1178.7117641351
 20
2198.8320247281
 30
0.0
 11
-1178.7117641351
 21
2183.832024132
 31
0.0
  0
LINE
  5
3C2
330
1F
100
AcDbEntity
  8
0
  6
Continuous
 62
     7
370
    15
100
AcDbLine
 10
-1173.7117614529
 20
2110.3320241916
 30
0.0
 11
-1172.7117631516
 21
2111.3320224929
 31
0.0
  0
LINE
  5
3C3
330
1F
100
AcDbEntity
  8
0
  6
Continuous
 62
     7
370
    15
100
AcDbLine
 10
-1172.7117631516
 20
2183.832024132
 30
0.0
 11
-1172.7117631516
 21
2165.3320238936
 31
0.0
  0
LINE
  5
3C4
330
1F
100
AcDbEntity
  8
0
  6
Continuous
 62
     7
370
    15
100
AcDbLine
 10
-1172.7117631516
 20
2125.3320247877
 30
0.0
 11
-1172.7117631516
 21
2111.3320224929
 31
0.0
  0
LINE
  5
3C5
330
1F
100
AcDbEntity
  8
0
  6
Continuous
 62
     7
370
    15
100
AcDbLine
 10
-1178.7117641351
 20
2183.832024132
 30
0.0
 11
-1178.7117641351
 21
2165.3320238936
 31
0.0
  0
LINE
  5
3C6
330
1F
100
AcDbEntity
  8
0
  6
Continuous
 62
     7
370
    15
100
AcDbLine
 10
-1178.7117641351
 20
2125.3320247877
 30
0.0
 11
-1178.7117641351
 21
2110.3320241916
 31
0.0
  0
LINE
  5
3C7
330
1F
100
AcDbEntity
  8
0
  6
Continuous
 62
     7
370
    15
100
AcDbLine
 10
-1173.2117641649
 20
54.331944232
 30
0.0
 11
-1173.2117641649
 21
50.3319957304
 31
0.0
  0
LINE
  5
3C8
330
1F
100
AcDbEntity
  8
0
  6
Continuous
 62
     7
370
    15
100
AcDbLine
 10
-1173.2117641649
 20
54.331944232
 30
0.0
 11
-1145.2117633006
 21
54.331944232
 31
0.0
  0
LINE
  5
3C9
330
1F
100
AcDbEntity
  8
0
  6
Continuous
 62
     7
370
    15
100
AcDbLine
 10
-1145.2117633006
 20
54.331944232
 30
0.0
 11
-1145.2117633006
 21
50.3319957304
 31
0.0
  0
LINE
  5
3CA
330
1F
100
AcDbEntity
  8
0
  6
Continuous
 62
     7
370
    15
100
AcDbLine
 10
-1173.2117641649
 20
50.3319957304
 30
0.0
 11
-1145.2117633006
 21
50.3319957304
 31
0.0
  0
LINE
  5
3CB
330
1F
100
AcDbEntity
  8
0
  6
Continuous
 62
     7
370
    15
100
AcDbLine
 10
-1159.9112857065
 20
70.3319766569
 30
0.0
 11
-1160.1823527298
 21
54.331944232
 31
0.0
  0
LINE
  5
3CC
330
1F
100
AcDbEntity
  8
0
  6
Continuous
 62
     7
370
    15
100
AcDbLine
 10
-1159.9112857065
 20
70.3319766569
 30
0.0
 11
-1158.512241759
 21
70.3319766569
 31
0.0
  0
LINE
  5
3CD
330
1F
100
AcDbEntity
  8
0
  6
Continuous
 62
     7
370
    15
100
AcDbLine
 10
-1158.512241759
 20
70.3319766569
 30
0.0
 11
-1158.2411747358
 21
54.331944232
 31
0.0
  0
LINE
  5
3CE
330
1F
100
AcDbEntity
  8
0
  6
Continuous
 62
     7
370
    15
100
AcDbLine
 10
-1158.512241759
 20
70.3319766569
 30
0.0
 11
-1156.9028753719
 21
70.3319766569
 31
0.0
  0
LINE
  5
3CF
330
1F
100
AcDbEntity
  8
0
  6
Continuous
 62
     7
370
    15
100
AcDbLine
 10
-1161.5206520936
 20
70.3319766569
 30
0.0
 11
-1159.9112857065
 21
70.3319766569
 31
0.0
  0
SPLINE
  5
3D0
330
1F
100
AcDbEntity
  8
0
  6
Continuous
 62
     7
370
    15
100
AcDbSpline
210
0.0
220
0.0
230
1.0
 70
     8
 71
     3
 72
     9
 73
     5
 74
     0
 42
0.000000001
 43
0.00000001
 40
0.0
 40
0.0
 40
0.0
 40
0.0
 40
0.5825260124023747
 40
1.0
 40
1.0
 40
1.0
 40
1.0
 10
-1183.155510195228
 20
2143.427419616952
 30
0.0
 10
-1183.169032030489
 20
2143.227099862419
 30
0.0
 10
-1183.192244444996
 20
2142.883218644639
 30
0.0
 10
-1183.171453986798
 20
2142.540879434974
 30
0.0
 10
-1183.16277451131
 20
2142.397961720004
 30
0.0
  0
SPLINE
  5
3D1
330
1F
100
AcDbEntity
  8
0
  6
Continuous
 62
     7
370
    15
100
AcDbSpline
210
0.0
220
0.0
230
1.0
 70
     8
 71
     3
 72
     9
 73
     5
 74
     0
 42
0.000000001
 43
0.00000001
 40
0.0
 40
0.0
 40
0.0
 40
0.0
 40
0.4999986045185357
 40
1.0
 40
1.0
 40
1.0
 40
1.0
 10
-1183.155510195228
 20
2146.531071188971
 30
0.0
 10
-1183.168327032652
 20
2146.013730914882
 30
0.0
 10
-1183.193960779044
 20
2144.979047478941
 30
0.0
 10
-1183.168327080348
 20
2143.944629866622
 30
0.0
 10
-1183.155510195228
 20
2143.427419616952
 30
0.0
  0
SPLINE
  5
3D2
330
1F
100
AcDbEntity
  8
0
  6
Continuous
 62
     7
370
    15
100
AcDbSpline
210
0.0
220
0.0
230
1.0
 70
     8
 71
     3
 72
     9
 73
     5
 74
     0
 42
0.000000001
 43
0.00000001
 40
0.0
 40
0.0
 40
0.0
 40
0.0
 40
0.4999987052023287
 40
1.0
 40
1.0
 40
1.0
 40
1.0
 10
-1183.155510195228
 20
2148.435675912648
 30
0.0
 10
-1183.168327034373
 20
2148.118633408944
 30
0.0
 10
-1183.193960779044
 20
2147.484546759507
 30
0.0
 10
-1183.168327078627
 20
2146.848896927841
 30
0.0
 10
-1183.155510195228
 20
2146.531071188971
 30
0.0
  0
LINE
  5
3D3
330
1F
100
AcDbEntity
  8
0
  6
Continuous
 62
     7
370
    15
100
AcDbLine
 10
-1183.1627335331
 20
2148.2669959321
 30
0.0
 11
-1183.1555101952
 21
2148.4356759126
 31
0.0
  0
LINE
  5
3D4
330
1F
100
AcDbEntity
  8
0
  6
Continuous
 62
     7
370
    15
100
AcDbLine
 10
-1172.3117638311
 20
2140.7986887741
 30
0.0
 11
-1172.3117638311
 21
2165.3320238936
 31
0.0
  0
LINE
  5
3D5
330
1F
100
AcDbEntity
  8
0
  6
Continuous
 62
     7
370
    15
100
AcDbLine
 10
-1172.3117638311
 20
2125.3320247877
 30
0.0
 11
-1172.3117638311
 21
2140.7986887741
 31
0.0
  0
LINE
  5
3D6
330
1F
100
AcDbEntity
  8
0
  6
Continuous
 62
     7
370
    15
100
AcDbLine
 10
-1180.3117614171
 20
2140.7986887741
 30
0.0
 11
-1180.3117614171
 21
2165.3320238936
 31
0.0
  0
LINE
  5
3D7
330
1F
100
AcDbEntity
  8
0
  6
Continuous
 62
     7
370
    15
100
AcDbLine
 10
-1180.3117614171
 20
2125.3320247877
 30
0.0
 11
-1180.3117614171
 21
2140.7986887741
 31
0.0
  0
LINE
  5
3D8
330
1F
100
AcDbEntity
  8
0
  6
Continuous
 62
     7
370
    15
100
AcDbLine
 10
-1141.511763998
 20
2145.3320243406
 30
0.0
 11
-1141.511763998
 21
2161.3320251006
 31
0.0
  0
LINE
  5
3D9
330
1F
100
AcDbEntity
  8
0
  6
Continuous
 62
     7
370
    15
100
AcDbLine
 10
-1141.511763998
 20
2129.3320235807
 30
0.0
 11
-1141.511763998
 21
2145.3320243406
 31
0.0
  0
LINE
  5
3DA
330
1F
100
AcDbEntity
  8
0
  6
Continuous
 62
     7
370
    15
100
AcDbLine
 10
-1139.7117633304
 20
2145.3320243406
 30
0.0
 11
-1139.7117633304
 21
2131.1320242482
 31
0.0
  0
LINE
  5
3DB
330
1F
100
AcDbEntity
  8
0
  6
Continuous
 62
     7
370
    15
100
AcDbLine
 10
-1139.7117633304
 20
2159.532024433
 30
0.0
 11
-1139.7117633304
 21
2145.3320243406
 31
0.0
  0
LINE
  5
3DC
330
1F
100
AcDbEntity
  8
0
  6
Continuous
 62
     7
370
    15
100
AcDbLine
 10
-1143.1117631427
 20
2145.3320243406
 30
0.0
 11
-1143.4823382578
 21
2142.7713999535
 31
0.0
  0
LWPOLYLINE
  5
3DD
330
1F
100
AcDbEntity
  8
0
  6
Continuous
 62
     7
370
    15
100
AcDbPolyline
 90
       17
 70
   128
 43
0.0
 10
-1168.1829500875
 20
2145.1047294929
 10
-1168.1867349825
 20
2147.1026453898
 10
-1167.3090528629
 20
2150.2577638264
 10
-1165.5895110151
 20
2153.1544336128
 10
-1162.7390790662
 20
2155.7903633463
 10
-1161.0645946047
 20
2156.738477667
 10
-1159.2141050777
 20
2157.4354776192
 10
-1156.4519140801
 20
2157.910266799
 10
-1153.5870578072
 20
2157.7515908527
 10
-1150.4255305907
 20
2156.7694953653
 10
-1148.4420519254
 20
2155.623695721
 10
-1146.711831533
 20
2154.150256795
 10
-1145.234468945
 20
2152.3288045089
 10
-1144.0913878313
 20
2150.2030500221
 10
-1143.2061973891
 20
2146.8717679625
 10
-1143.1117631427
 20
2145.3320243406
 10
-1143.1117631427
 20
2145.3320243406
  0
LINE
  5
3DE
330
1F
100
AcDbEntity
  8
0
  6
Continuous
 62
     7
370
    15
100
AcDbLine
 10
-1125.211763282
 20
2145.9420078561
 30
0.0
 11
-1125.211763282
 21
2160.3320240054
 31
0.0
  0
LINE
  5
3DF
330
1F
100
AcDbEntity
  8
0
  6
Continuous
 62
     7
370
    15
100
AcDbLine
 10
-1125.211763282
 20
2130.3320246759
 30
0.0
 11
-1125.211763282
 21
2145.9420078561
 31
0.0
  0
LINE
  5
3E0
330
1F
100
AcDbEntity
  8
0
  6
Continuous
 62
     7
370
    15
100
AcDbLine
 10
-1123.211763187
 20
2146.5519913715
 30
0.0
 11
-1123.211763187
 21
2115.3320250112
 31
0.0
  0
LINE
  5
3E1
330
1F
100
AcDbEntity
  8
0
  6
Continuous
 62
     7
370
    15
100
AcDbLine
 10
-1123.211763187
 20
2175.3320236701
 30
0.0
 11
-1123.211763187
 21
2146.5519913715
 31
0.0
  0
LINE
  5
3E2
330
1F
100
AcDbEntity
  8
0
  6
Continuous
 62
     7
370
    15
100
AcDbLine
 10
-1121.211763092
 20
2146.5519913715
 30
0.0
 11
-1121.211763092
 21
2175.3320236701
 31
0.0
  0
LINE
  5
3E3
330
1F
100
AcDbEntity
  8
0
  6
Continuous
 62
     7
370
    15
100
AcDbLine
 10
-1121.211763092
 20
2115.3320250112
 30
0.0
 11
-1121.211763092
 21
2146.5519913715
 31
0.0
  0
LINE
  5
3E4
330
1F
100
AcDbEntity
  8
0
  6
Continuous
 62
     8
370
    15
100
AcDbLine
 10
-1149.2117639563
 20
2143.6798039601
 30
0.0
 11
-1149.2117639563
 21
2152.7820242579
 31
0.0
  0
LINE
  5
3E5
330
1F
100
AcDbEntity
  8
0
  6
Continuous
 62
     8
370
    15
100
AcDbLine
 10
-1149.2117639563
 20
2137.8820244233
 30
0.0
 11
-1149.2117639563
 21
2143.6798039601
 31
0.0
  0
LINE
  5
3E6
330
1F
100
AcDbEntity
  8
0
  6
Continuous
 62
     8
370
    15
100
AcDbLine
 10
-1144.5117626271
 20
2186.9833664048
 30
0.0
 11
-1144.5117626271
 21
2168.832023536
 31
0.0
  0
LINE
  5
3E7
330
1F
100
AcDbEntity
  8
0
  6
Continuous
 62
     8
370
    15
100
AcDbLine
 10
-1144.5117626271
 20
2198.8320247281
 30
0.0
 11
-1144.5117626271
 21
2186.9833664048
 31
0.0
  0
LINE
  5
3E8
330
1F
100
AcDbEntity
  8
0
  6
Continuous
 62
     8
370
    15
100
AcDbLine
 10
-1143.1843522868
 20
2198.6641072679
 30
0.0
 11
-1143.1843522868
 21
2168.9999428588
 31
0.0
  0
LINE
  5
3E9
330
1F
100
AcDbEntity
  8
0
  6
Continuous
 62
     8
370
    15
100
AcDbLine
 10
-1143.3817628703
 20
2168.832023536
 30
0.0
 11
-1143.3817628703
 21
2198.8320247281
 31
0.0
  0
LINE
  5
3EA
330
1F
100
AcDbEntity
  8
0
  6
Continuous
 62
     8
370
    15
100
AcDbLine
 10
-1144.9117638102
 20
2185.8803973544
 30
0.0
 11
-1144.9117638102
 21
2193.5820252645
 31
0.0
  0
LINE
  5
3EB
330
1F
100
AcDbEntity
  8
0
  6
Continuous
 62
     8
370
    15
100
AcDbLine
 10
-1144.9117638102
 20
2174.0820248622
 30
0.0
 11
-1144.9117638102
 21
2185.8803973544
 31
0.0
  0
LINE
  5
3EC
330
1F
100
AcDbEntity
  8
0
  6
Continuous
 62
     8
370
    15
100
AcDbLine
 10
-1180.0433766029
 20
2196.332023387
 30
0.0
 11
-1180.0433766029
 21
2171.3320248771
 31
0.0
  0
LINE
  5
3ED
330
1F
100
AcDbEntity
  8
0
  6
Continuous
 62
     8
370
    15
100
AcDbLine
 10
-1180.240474262
 20
2171.4980890054
 30
0.0
 11
-1180.240474262
 21
2196.1659611213
 31
0.0
  0
LINE
  5
3EE
330
1F
100
AcDbEntity
  8
0
  6
Continuous
 62
     8
370
    15
100
AcDbLine
 10
-1181.839175143
 20
2130.4999430674
 30
0.0
 11
-1181.839175143
 21
2160.1641056138
 31
0.0
  0
LINE
  5
3EF
330
1F
100
AcDbEntity
  8
0
  6
Continuous
 62
     8
370
    15
100
AcDbLine
 10
-1181.6417645595
 20
2160.3320240054
 30
0.0
 11
-1181.6417645595
 21
2130.3320246759
 31
0.0
  0
ENDSEC
  0
SECTION
  2
OBJECTS
  0
DICTIONARY
  5
C
330
0
100
AcDbDictionary
281
     1
  3
ACAD_GROUP
350
D
  3
ACAD_LAYOUT
350
1A
  3
ACAD_MLINESTYLE
350
17
  3
ACAD_PLOTSETTINGS
350
19
  3
ACAD_PLOTSTYLENAME
350
E
  3
ACAD_SCALELIST
350
47
  0
DICTIONARY
  5
D
102
{ACAD_REACTORS
330
C
102
}
330
C
100
AcDbDictionary
281
     1
  0
DICTIONARY
  5
1A
102
{ACAD_REACTORS
330
C
102
}
330
C
100
AcDbDictionary
281
     1
  3
Layout1
350
1E
  3
Layout2
350
26
  3
Model
350
22
  0
DICTIONARY
  5
17
102
{ACAD_REACTORS
330
C
102
}
330
C
100
AcDbDictionary
281
     1
  3
Standard
350
18
  0
DICTIONARY
  5
19
102
{ACAD_REACTORS
330
C
102
}
330
C
100
AcDbDictionary
281
     1
  0
ACDBDICTIONARYWDFLT
  5
E
102
{ACAD_REACTORS
330
C
102
}
330
C
100
AcDbDictionary
281
     1
  3
Normal
350
F
100
AcDbDictionaryWithDefault
340
F
  0
DICTIONARY
  5
47
102
{ACAD_REACTORS
330
C
102
}
330
C
100
AcDbDictionary
281
     1
  3
A0
350
48
  3
A1
350
49
  3
A2
350
4A
  3
A3
350
4B
  3
A4
350
4C
  3
A5
350
4D
  3
A6
350
4E
  3
A7
350
4F
  3
A8
350
50
  3
A9
350
51
  3
B0
350
52
  3
B1
350
53
  3
B2
350
54
  3
B3
350
55
  3
B4
350
56
  3
B5
350
57
  3
B6
350
58
  3
B7
350
59
  3
B8
350
5A
  3
B9
350
5B
  3
C0
350
5C
  3
C1
350
5D
  3
C2
350
5E
  3
C3
350
5F
  3
C4
350
60
  3
C5
350
61
  3
C6
350
62
  3
C7
350
63
  3
C8
350
64
  3
C9
350
65
  3
D0
350
66
  3
D1
350
67
  3
D2
350
68
  0
LAYOUT
  5
1E
102
{ACAD_REACTORS
330
1A
102
}
330
1A
100
AcDbPlotSettings
  1

  2
none_device
  4

  6

 40
0.0
 41
0.0
 42
0.0
 43
0.0
 44
0.0
 45
0.0
 46
0.0
 47
0.0
 48
0.0
 49
0.0
140
0.0
141
0.0
142
1.0
143
1.0
 70
   688
 72
     1
 73
     0
 74
     5
  7

 75
    16
147
1.0
148
0.0
149
0.0
100
AcDbLayout
  1
Layout1
 70
     1
 71
     1
 10
0.0
 20
0.0
 11
420.0
 21
297.0
 12
0.0
 22
0.0
 32
0.0
 14
1.0000000000E+20
 24
1.0000000000E+20
 34
1.0000000000E+20
 15
-1.0000000000E+20
 25
-1.0000000000E+20
 35
-1.0000000000E+20
146
0.0
 13
0.0
 23
0.0
 33
0.0
 16
1.0
 26
0.0
 36
0.0
 17
0.0
 27
1.0
 37
0.0
 76
     0
330
1B
  0
LAYOUT
  5
26
102
{ACAD_REACTORS
330
1A
102
}
330
1A
100
AcDbPlotSettings
  1

  2
none_device
  4

  6

 40
0.0
 41
0.0
 42
0.0
 43
0.0
 44
0.0
 45
0.0
 46
0.0
 47
0.0
 48
0.0
 49
0.0
140
0.0
141
0.0
142
1.0
143
1.0
 70
   688
 72
     1
 73
     0
 74
     5
  7

 75
    16
147
1.0
148
0.0
149
0.0
100
AcDbLayout
  1
Layout2
 70
     1
 71
     2
 10
0.0
 20
0.0
 11
0.0
 21
0.0
 12
0.0
 22
0.0
 32
0.0
 14
0.0
 24
0.0
 34
0.0
 15
0.0
 25
0.0
 35
0.0
146
0.0
 13
0.0
 23
0.0
 33
0.0
 16
1.0
 26
0.0
 36
0.0
 17
0.0
 27
1.0
 37
0.0
 76
     0
330
23
  0
LAYOUT
  5
22
102
{ACAD_REACTORS
330
1A
102
}
330
1A
100
AcDbPlotSettings
  1

  2
none_device
  4
Letter_(8.50_x_11.00_Inches)
  6

 40
6.35
 41
6.35
 42
6.35000508
 43
6.35000508
 44
215.9
 45
279.4
 46
0.0
 47
0.0
 48
0.0
 49
0.0
140
0.0
141
0.0
142
1.0
143
1.0
 70
  1712
 72
     1
 73
     0
 74
     0
  7

 75
     0
147
1.0
148
0.0
149
0.0
100
AcDbLayout
  1
Model
 70
     1
 71
     0
 10
0.0
 20
0.0
 11
431.8
 21
279.4
 12
0.0
 22
0.0
 32
0.0
 14
0.0
 24
0.0
 34
0.0
 15
431.8
 25
279.4
 35
0.0
146
0.0
 13
0.0
 23
0.0
 33
0.0
 16
1.0
 26
0.0
 36
0.0
 17
0.0
 27
1.0
 37
0.0
 76
     0
330
1F
331
29
  0
MLINESTYLE
  5
18
102
{ACAD_REACTORS
330
17
102
}
330
17
100
AcDbMlineStyle
  2
Standard
 70
     0
  3

 62
   256
 51
90.0
 52
90.0
 71
     2
 49
0.5
 62
   256
  6
BYLAYER
 49
-0.5
 62
   256
  6
BYLAYER
  0
ACDBPLACEHOLDER
  5
F
102
{ACAD_REACTORS
330
E
102
}
330
E
  0
SCALE
  5
48
102
{ACAD_REACTORS
330
47
102
}
330
47
100
AcDbScale
 70
     0
300
1:1
140
1.0
141
1.0
290
     1
  0
SCALE
  5
49
102
{ACAD_REACTORS
330
47
102
}
330
47
100
AcDbScale
 70
     0
300
1:2
140
1.0
141
2.0
290
     0
  0
SCALE
  5
4A
102
{ACAD_REACTORS
330
47
102
}
330
47
100
AcDbScale
 70
     0
300
1:4
140
1.0
141
4.0
290
     0
  0
SCALE
  5
4B
102
{ACAD_REACTORS
330
47
102
}
330
47
100
AcDbScale
 70
     0
300
1:5
140
1.0
141
5.0
290
     0
  0
SCALE
  5
4C
102
{ACAD_REACTORS
330
47
102
}
330
47
100
AcDbScale
 70
     0
300
1:8
140
1.0
141
8.0
290
     0
  0
SCALE
  5
4D
102
{ACAD_REACTORS
330
47
102
}
330
47
100
AcDbScale
 70
     0
300
1:10
140
1.0
141
10.0
290
     0
  0
SCALE
  5
4E
102
{ACAD_REACTORS
330
47
102
}
330
47
100
AcDbScale
 70
     0
300
1:16
140
1.0
141
16.0
290
     0
  0
SCALE
  5
4F
102
{ACAD_REACTORS
330
47
102
}
330
47
100
AcDbScale
 70
     0
300
1:20
140
1.0
141
20.0
290
     0
  0
SCALE
  5
50
102
{ACAD_REACTORS
330
47
102
}
330
47
100
AcDbScale
 70
     0
300
1:30
140
1.0
141
30.0
290
     0
  0
SCALE
  5
51
102
{ACAD_REACTORS
330
47
102
}
330
47
100
AcDbScale
 70
     0
300
1:40
140
1.0
141
40.0
290
     0
  0
SCALE
  5
52
102
{ACAD_REACTORS
330
47
102
}
330
47
100
AcDbScale
 70
     0
300
1:50
140
1.0
141
50.0
290
     0
  0
SCALE
  5
53
102
{ACAD_REACTORS
330
47
102
}
330
47
100
AcDbScale
 70
     0
300
1:100
140
1.0
141
100.0
290
     0
  0
SCALE
  5
54
102
{ACAD_REACTORS
330
47
102
}
330
47
100
AcDbScale
 70
     0
300
2:1
140
2.0
141
1.0
290
     0
  0
SCALE
  5
55
102
{ACAD_REACTORS
330
47
102
}
330
47
100
AcDbScale
 70
     0
300
4:1
140
4.0
141
1.0
290
     0
  0
SCALE
  5
56
102
{ACAD_REACTORS
330
47
102
}
330
47
100
AcDbScale
 70
     0
300
8:1
140
8.0
141
1.0
290
     0
  0
SCALE
  5
57
102
{ACAD_REACTORS
330
47
102
}
330
47
100
AcDbScale
 70
     0
300
10:1
140
10.0
141
1.0
290
     0
  0
SCALE
  5
58
102
{ACAD_REACTORS
330
47
102
}
330
47
100
AcDbScale
 70
     0
300
100:1
140
100.0
141
1.0
290
     0
  0
SCALE
  5
59
102
{ACAD_REACTORS
330
47
102
}
330
47
100
AcDbScale
 70
     0
300
1/128" = 1'-0"
140
0.0078125
141
12.0
290
     0
  0
SCALE
  5
5A
102
{ACAD_REACTORS
330
47
102
}
330
47
100
AcDbScale
 70
     0
300
1/64" = 1'-0"
140
0.015625
141
12.0
290
     0
  0
SCALE
  5
5B
102
{ACAD_REACTORS
330
47
102
}
330
47
100
AcDbScale
 70
     0
300
1/32" = 1'-0"
140
0.03125
141
12.0
290
     0
  0
SCALE
  5
5C
102
{ACAD_REACTORS
330
47
102
}
330
47
100
AcDbScale
 70
     0
300
1/16" = 1'-0"
140
0.0625
141
12.0
290
     0
  0
SCALE
  5
5D
102
{ACAD_REACTORS
330
47
102
}
330
47
100
AcDbScale
 70
     0
300
3/32" = 1'-0"
140
0.09375
141
12.0
290
     0
  0
SCALE
  5
5E
102
{ACAD_REACTORS
330
47
102
}
330
47
100
AcDbScale
 70
     0
300
1/8" = 1'-0"
140
0.125
141
12.0
290
     0
  0
SCALE
  5
5F
102
{ACAD_REACTORS
330
47
102
}
330
47
100
AcDbScale
 70
     0
300
3/16" = 1'-0"
140
0.1875
141
12.0
290
     0
  0
SCALE
  5
60
102
{ACAD_REACTORS
330
47
102
}
330
47
100
AcDbScale
 70
     0
300
1/4" = 1'-0"
140
0.25
141
12.0
290
     0
  0
SCALE
  5
61
102
{ACAD_REACTORS
330
47
102
}
330
47
100
AcDbScale
 70
     0
300
3/8" = 1'-0"
140
0.375
141
12.0
290
     0
  0
SCALE
  5
62
102
{ACAD_REACTORS
330
47
102
}
330
47
100
AcDbScale
 70
     0
300
1/2" = 1'-0"
140
0.5
141
12.0
290
     0
  0
SCALE
  5
63
102
{ACAD_REACTORS
330
47
102
}
330
47
100
AcDbScale
 70
     0
300
3/4" = 1'-0"
140
0.75
141
12.0
290
     0
  0
SCALE
  5
64
102
{ACAD_REACTORS
330
47
102
}
330
47
100
AcDbScale
 70
     0
300
1" = 1'-0"
140
1.0
141
12.0
290
     0
  0
SCALE
  5
65
102
{ACAD_REACTORS
330
47
102
}
330
47
100
AcDbScale
 70
     0
300
1-1/2" = 1'-0"
140
1.5
141
12.0
290
     0
  0
SCALE
  5
66
102
{ACAD_REACTORS
330
47
102
}
330
47
100
AcDbScale
 70
     0
300
3" = 1'-0"
140
3.0
141
12.0
290
     0
  0
SCALE
  5
67
102
{ACAD_REACTORS
330
47
102
}
330
47
100
AcDbScale
 70
     0
300
6" = 1'-0"
140
6.0
141
12.0
290
     0
  0
SCALE
  5
68
102
{ACAD_REACTORS
330
47
102
}
330
47
100
AcDbScale
 70
     0
300
1'-0" = 1'-0"
140
12.0
141
12.0
290
     0
  0
ENDSEC
  0
EOF
